Аккорды Yours Truly - Yours Truly When The Sky Falls Down (Acoustic)

Добавлено: @romashka
Дата добавления: 14 Марта 2024г.
Рейтинг:
0.0
Просмотров: 36
Транспонировать - +
N.C:
D#: x79900 and D#: 222xxx
G#: x02200 and G#: 777xxx
C5: x466xx
A#: x244xx and A#: 999xxx
F#: 555xxx

[Intro]
     D#                         G#
Eb|--0-0-0-0-0-0-0-0-0-0-0--0-0-0-0-0-0-0-0-0-0-0------------------------------------|
Bb|--0-0-0-0-0-0-0-0-0-0-0--0-0-0-0-0-0-0-0-0-0-0------------------------------------|
Gb|--9-9-9-9-9-8-8-8-8-8-9--2-2-2-2-2-1-1-1-1-1-2------------------------------------|  2x
Db|--9-9-9-9-9-9-9-9-9-9-9--2-2-2-2-2-2-2-2-2-2-2------------------------------------|
Ab|--7-7-7-7-7-7-7-7-7-7-7--0-0-0-0-0-0-0-0-0-0-0------------------------------------|
Db|----------------------------------------------------------------------------------|

[Verse 1]
C5
  If they put pen to paper,
G#
  What would you say?
C5
  Did you make an impression?
G#
  Will they remember your name?
A#          G#       A#             G#
  When the sun goes down and the street lights fade

[Chorus]
D#                   G#
 When the sky falls down how will you be remembered
D#                    G#
 When the lights burn out would you live on forever

[Verse 2]
C5
 Would you give your last dollar
G#
 To put a smile on a face?
C5                       G#
 And if we even bothered would anything change?
A#         G#       A#             G#
 When the sun goes down and the street lights fade

[Chorus]

D#                   G#
 When the sky falls down how will you be remembered
D#                    G#
 When the lights burn out would you live on forever
     A#                              F#              G#
In thousand years you will be there just be another soul
 A#                      F#                             G#           A#
Lost in the middle of it all no one will know that you sacrificed it all

[Bridge]
D#                   G#
 When the sky falls down how will you be remembered
D#                    G#
 When the lights burn out would you live on forever

[Chorus]

D#                   G#
 When the sky falls down how will you be remembered
D#                    G#
 When the lights burn out would you live on forever
D#                   G#
 When the sky falls down how will you be remembered
D#                    G#
 When the lights burn out would you live on forever

[Post Chorus]
     D#                         G#
Eb|--0-0-0-0-0-0-0-0-0-0-0--0-0-0-0-0-0-0-0-0-0-0------------------------------------|
Bb|--0-0-0-0-0-0-0-0-0-0-0--0-0-0-0-0-0-0-0-0-0-0------------------------------------|
Gb|--9-9-9-9-9-8-8-8-8-8-9--2-2-2-2-2-1-1-1-1-1-2------------------------------------|  2x
Db|--9-9-9-9-9-9-9-9-9-9-9--2-2-2-2-2-2-2-2-2-2-2------------------------------------|
Ab|--7-7-7-7-7-7-7-7-7-7-7--0-0-0-0-0-0-0-0-0-0-0------------------------------------|
Db|----------------------------------------------------------------------------------|
Наверх