Аккорды Юрий Шатунов - Мой зайчик

Добавлено: @romashka
Дата добавления: 04 Декабря 2022г.
Рейтинг:
0.0
Просмотров: 39
Транспонировать - +
[Вступление]: G#m A# D#m F# G#m A# D#m x2

e|------9-|-7---|---7-|-6---|---6-|-----|-----|---|
B|---7----|---6-|-5---|---9-|-7---|-9-6-|---6-|-7-|
G|-8------|-----|-----|-----|-----|-----|-8---|---|
D|--------|-----|-----|-----|-----|-----|-----|---|
A|--------|-----|-----|-----|-----|-----|-----|---|
E|--------|-----|-----|-----|-----|-----|-----|---|

e|------9-|-7---|---7-|-6---|---6-|-----|-----|---|
B|---7----|---6-|-5---|---9-|-7---|-9---|-6---|---|
G|-8------|-----|-----|-----|-----|---8-|---8-|-8-|
D|--------|-----|-----|-----|-----|-----|-----|---|
A|--------|-----|-----|-----|-----|-----|-----|---|
E|--------|-----|-----|-----|-----|-----|-----|---|

[Куплет]:

       D#m
Гаснут сумерки летнего дня,
      G#m               A#
Ночь опустится звёздною тенью,
     G#m             A#
На коленях уснув у меня,
     D#m                    C#  F#
Ты уйдёшь в мир волшебных видений.
   B                A#
Я тебя осторожно возьму,
     D#m              B
Как ребёнка, уставшего за день,
       G#m
И в постель  уложив, обниму,
 A#
Спи, любимый мой солнечный зайчик.

[Припев]:

   G#m     A#                 D#m
  Спи, мой ласковый зайчик, а я осторожно уйду,
             G#m              A#                  D#m F#
  Скрипнув, двери заплачут, и дождик заплачет в саду.
   G#m     A#                   D#m
  Спи, мой ласковый зайчик, прости, если в чём виноват,
         G#m                  A#                  D#m
  Ты же знала, что дальше нельзя наши встречи скрывать.

[Проигрыш]: G#m A# D#m F# G#m A# D#m

e|------9-|-7---|---7-|-6---|---6-|-----|-----|---|
B|---7----|---6-|-5---|---9-|-7---|-9---|-6---|---|
G|-8------|-----|-----|-----|-----|---8-|---8-|-8-|
D|--------|-----|-----|-----|-----|-----|-----|---|
A|--------|-----|-----|-----|-----|-----|-----|---|
E|--------|-----|-----|-----|-----|-----|-----|---|

[Куплет]:

    D#m
Не имеем мы право любить
       G#m                  A#
Только не разлучить нас с тобою,
     G#m                  A#
Надо чуть повзрослей тебе быть,
      D#m            C#  F#
Чтобы это признали любовью.
      B                    A#
Надо просто чуть-чуть подождать,
      D#m                 B
Время может быть что-то изменит
     G#m
И до боли, до слёз мне так жаль,
 A#
Что так медленно тянется время.

[Припев]: x2

   G#m     A#                 D#m
  Спи, мой ласковый зайчик, а я осторожно уйду,
             G#m              A#                  D#m F#
  Скрипнув, двери заплачут, и дождик заплачет в саду.
   G#m     A#                   D#m
  Спи, мой ласковый зайчик, прости, если в чём виноват,
         G#m                  A#                  D#m
  Ты же знала, что дальше нельзя наши встречи скрывать.

[Окончание]: G#m A# D#m F# G#m A# D#m x2

e|------9-|-7---|---7-|-6---|---6-|-----|-----|---|
B|---7----|---6-|-5---|---9-|-7---|-9-6-|---6-|-7-|
G|-8------|-----|-----|-----|-----|-----|-8---|---|
D|--------|-----|-----|-----|-----|-----|-----|---|
A|--------|-----|-----|-----|-----|-----|-----|---|
E|--------|-----|-----|-----|-----|-----|-----|---|

e|------9-|-7---|---7-|-6---|-----|-----|-----|---|
B|---7----|---6-|-5---|---9-|-7---|-9---|-6---|---|
G|-8------|-----|-----|-----|---8-|---8-|---7-|-8-|
D|--------|-----|-----|-----|-----|-----|-----|---|
A|--------|-----|-----|-----|-----|-----|-----|---|
E|--------|-----|-----|-----|-----|-----|-----|---|
Наверх