Аккорды Юрий Шатунов - Спасибо тебе

Добавлено: @romashka
Дата добавления: 06 Декабря 2022г.
Рейтинг:
0.0
Просмотров: 30
Транспонировать - +
[Вступление]: Am Dm E Am Dm G E Am Dm E Am F E

e|-----------|-----------|---0-0---0-1-0-1-|---0-------|---0-------|-----------0-----|
B|---3-3-1-1-|---0-0-----|-------3---------|-----3-1-0-|-----3-1-0-|-0-0-1-3-3---0-1-|
G|-----------|-------2-2-|-2---------------|-2---------|-----------|-----------------|
D|-2---------|-2---------|-----------------|-----------|-2---------|-----------------|
A|-----------|-----------|-----------------|-----------|-----------|-----------------|
E|-----------|-----------|-----------------|-----------|-----------|-----------------|

e|---1-1-0-1-|-0---------|-----------0-----|---0-0-----|-----------|-----------|
B|-----------|---3-3-1-0-|-0-0-1-3-3---0-1-|-------1-3-|---1-1---0-|---0-0-----|
G|-2---------|-----------|-----------------|-2---------|-------2---|-------1-2-|
D|-----------|-----------|-----------------|-----------|-3---------|-2---------|
A|-----------|-----------|-----------------|-----------|-----------|-----------|
E|-----------|-----------|-----------------|-----------|-----------|-----------|

[Куплет]:

    Am                    G               Dm E
Прости, что так вышло, но я в этом не виноват,
  Am                G                  C Am
И дождик по крыше сегодня не сводит с ума.
      Dm              G                    C   Am
Мне выпало счастье не быть с тобой рядом теперь,
   Dm              F              E
Спасибо отчасти за дома закрытую дверь.

[Припев]:

            Am                         Dm
  Спасибо тебе за сладкую ложь, её называют мечтой,
              E                                Am
  Спасибо за дверь, которую мог открыть любой кто-то другой.
            Dm            G                E        Am
  Спасибо тебе за ласки утра, за тайну, никто и не знал,
             Dm               E         Am F E
  Спасибо, успел с тобой попрощаться вчера

[Проигрыш]: Am Dm E Am Dm G E Am Dm E Am F E

e|-----------|-----------|---0-0---0-1-0-1-|---0-------|---0-------|-----------0-----|
B|---3-3-1-1-|---0-0-----|-------3---------|-----3-1-0-|-----3-1-0-|-0-0-1-3-3---0-1-|
G|-----------|-------2-2-|-2---------------|-2---------|-----------|-----------------|
D|-2---------|-2---------|-----------------|-----------|-2---------|-----------------|
A|-----------|-----------|-----------------|-----------|-----------|-----------------|
E|-----------|-----------|-----------------|-----------|-----------|-----------------|

e|---1-1-0-1-|-0---------|-----------0-----|---0-0-----|-----------|-----------|
B|-----------|---3-3-1-0-|-0-0-1-3-3---0-1-|-------1-3-|---1-1---0-|---0-0-----|
G|-2---------|-----------|-----------------|-2---------|-------2---|-------1-2-|
D|-----------|-----------|-----------------|-----------|-3---------|-2---------|
A|-----------|-----------|-----------------|-----------|-----------|-----------|
E|-----------|-----------|-----------------|-----------|-----------|-----------|

[Куплет]:

  Am                 G                      Dm E
А помнишь когда-то я ночью пробрался в твой сад?
   Am               G              C Am
Весна виновата, рассвет и четыре часа.
  Dm                G                  C Am
И мы на рассвете болтали с тобой до шести,
   Dm                F                   E
Ласкал тебя ветер, я тоже, ну ладно, прости.

[Припев]:

            Am                         Dm
  Спасибо тебе за сладкую ложь, её называют мечтой,
              E                                Am
  Спасибо за дверь, которую мог открыть любой кто-то другой.
            Dm            G                E        Am
  Спасибо тебе за ласки утра, за тайну, никто и не знал,
             Dm               E         Am F E
  Спасибо, успел с тобой попрощаться вчера

[Куплет]:

   Am                  G                 Dm E
Мы больше не можем в любовь бесконечно играть,
    Am                  G                    C Am
Всё это так сложно, вот видишь, я точно был прав.
 Dm                  G              C Am
Уеду в свой город, тебе уже не позвоню,
  Dm                  F         E
И год будет скоро, я всё ещё помню.

[Припев]:

            Am                         Dm
  Спасибо тебе за сладкую ложь, её называют мечтой,
              E                                Am
  Спасибо за дверь, которую мог открыть любой кто-то другой.
            Dm            G                E        Am
  Спасибо тебе за ласки утра, за тайну, никто и не знал,
             Dm               E
  Спасибо, успел с тобой попрощаться
            Dm            G                E        Am
  Спасибо тебе за ласки утра, за тайну, никто и не знал,
             Dm               E         Am
  Спасибо, успел с тобой попрощаться вчера 
Наверх