Аккорды Юрий Шатунов - Не молчи

Добавлено: @romashka
Дата добавления: 24 Декабря 2022г.
Рейтинг:
0.0
Просмотров: 11
Транспонировать - +
[Вступление]:
Cm Fm Bb Cm Cm Fm Ab G

e|---------|---------|---|---------|---|---------|---|-4-3-----1---|
B|-----1-4-|-1-------|---|---------|---|-1-------|---|-----4-1---3-|
G|-0-3-----|---3-0-3-|-1-|-3-1---1-|-0-|---3-0-3-|-1-|-------------|
D|---------|---------|---|-----3---|---|---------|---|-------------|
A|---------|---------|---|---------|---|---------|---|-------------|
E|---------|---------|---|---------|---|---------|---|-------------|

[Куплет]:
             Cm                  Fm
Ну что ты молчишь? Ты что, не скучаешь?
           Bb                  Cm
И что разделяет с тобой теперь нас?
              Cm              Fm
Ты где, мой малыш? Понять я пытаюсь,
                    Ab               G
Представь, как мне трудно, трудно сейчас.
             Cm                Fm
С солёной слезой, со вкусом разлуки,
              Bb                Cm
С холодной постелью я близко знаком
           Cm              Fm
И в доме моём одиночества звуки,
              Ab                   Bb
В другом живу мире, в другом, а не том.

[Припев]: (2 раза)

        Cm               Fm
  Не молчи, одно только слово,
        G               Cm
  Не молчи, дай о себе знать,
        Cm              Fm
  Не молчи, но снова и снова,
        G            Cm
  Не молчи, мне эхо опять.
        Cm               Fm
  Не молчи, одно только слово,
        G               Cm
  Не молчи, дай о себе знать,
        Cm              Fm
  Не молчи, но снова и снова,
        G
  Не молчи, мне эхо опять.

[Проигрыш]:
 Cm Fm Bb Cm Cm Fm Ab G

e|---------|---|---------|---|---------|---|-4-3-----1---|
B|-1-------|---|---------|---|-1-------|---|-----4-1---3-|
G|---3-0-3-|-1-|-3-1---1-|-0-|---3-0-3-|-1-|-------------|
D|---------|---|-----3---|---|---------|---|-------------|
A|---------|---|---------|---|---------|---|-------------|
E|---------|---|---------|---|---------|---|-------------|

[Куплет]:
             Cm                  Fm
Ну что ты молчишь? Ты что, не скучаешь?
           Bb                     Cm
Похож этот день точь-в-точь на другой,
          Cm              Fm
И я с головой купаюсь в печали,
             Ab                   G
Не знаешь насколько стала мне дорогой.
            Cm             Fm
А где те слова, что ты говорила?
           Bb               Cm
Все наши надежды теперь далеки,
          Cm               Fm
Но я не забыл, как всё это было,
              Ab                 Bb
А может быть снова мы станем близки.

[Припев]:
        Cm               Fm
  Не молчи, одно только слово,
        G               Cm
  Не молчи, дай о себе знать,
        Cm              Fm
  Не молчи, но снова и снова,
        G            Cm
  Не молчи, мне эхо опять.
        Cm               Fm
  Не молчи, одно только слово,
        G               Cm
  Не молчи, дай о себе знать,
        Cm              Fm
  Не молчи, но снова и снова,
        G
  Не молчи, мне эхо опять.

[Окончание]:
 Cm Fm Bb Cm Cm Fm Ab G

e|---------|---------|---|---------|---|---------|---|-4-3-----1---|
B|-----1-4-|-1-------|---|---------|---|-1-------|---|-----4-1---3-|
G|-0-3-----|---3-0-3-|-1-|-3-1---1-|-0-|---3-0-3-|-1-|-------------|
D|---------|---------|---|-----3---|---|---------|---|-------------|
A|---------|---------|---|---------|---|---------|---|-------------|
E|---------|---------|---|---------|---|---------|---|-------------|
Наверх