Аккорды «ZZ Top»

ZZ Top
В конце 60-х годов техасский гитарист Билли Гиббонс организовал блюзовую команду «Moving Sidewalks». Группа выпустила альбом и несколько синглов, и даже сам Джими Хендрикс, проникшись ее творчеством, пригласил музыкантов поучаствовать вместе с ним в телепередаче, где назвал Гиббонса одним из лучших молодых исполнителей Америки. В 1970 году Билли открыл новый проект под названием «ZZ Top». В этом деле ему помогли товарищи по «Moving Sidewalks» клавишник Ланье Григ и ударник Дэн Митчелл. Данная конфигурация… Читать полностью... В конце 60-х годов техасский гитарист Билли Гиббонс организовал блюзовую команду «Moving Sidewalks». Группа выпустила альбом и несколько синглов, и даже сам Джими Хендрикс, проникшись ее творчеством, пригласил музыкантов поучаствовать вместе с ним в телепередаче, где назвал Гиббонса одним из лучших молодых исполнителей Америки. В 1970 году Билли открыл новый проект под названием «ZZ Top». В этом деле ему помогли товарищи по «Moving Sidewalks» клавишник Ланье Григ и ударник Дэн Митчелл. Данная конфигурация успела выпустить всего один сингл, после чего коллеги Билли отправились во Вьетнам, и ему пришлось искать новых соратников. Новый состав «ZZ Top», «зацементировавшийся» на долгие годы, выглядел следующим образом: Билли Гиббонс (вокал, гитара), Джо «Дасти» Хилл (вокал, бас), Фрэнк Бирд (ударные). Четвертым внештатным членом команды стал продюсер Билл Хэм. Именно он посоветовал ориентироваться на хард-рок. Но от своих южных блюзовых корней коллектив тоже не мог отказаться, в результате чего выбрали направление, обеспечившее «ZZ Top» славу на долгое время. В начале своей деятельности трио гастролировало в основном по южным штатам, но уже после выхода второй пластинки получило общеамериканскую известность. Тогда, в 1972-м, их сингл «Francene» пробился в первую сотню. Сам же «Rio Grande Mud» почему-то не попал в чарты, хотя песни с альбома звучали в эфире радиостанций. Коммерческий успех пришел с выходом «Tres Hombres», содержащего такой боевик, как «La Grange». Благодаря этой композиции альбом угодил прямо в Топ 10. Следующая, наполовину студийная, наполовину концертная, работа, «Fandango», также присутствовала в горячей десятке. Этот диск, получивший платину, провел в общей сложности в чартах 83 недели. Последовавший за этим тур «World Wide Texas» стал для «ZZ Top» поистине легендарным. Дело в том, что сцену в течение гастролей оформляли в соответствующем техасском стиле – с кактусами, змеями и прочими южными «прелестями». После 1976 года в студийной деятельности трио наступил значительный перерыв, во время которого группа в основном предавалась гастролям. Гиббонс и Хилл отрастили себе длинные бороды, обеспечив «ZZ Top» фирменный сценический имидж (Бирду борода не требовалась, т.к. у него фамилия была «бородатая»). В период с 1979 по 1985 годы у группы вышло четыре альбома с равным промежутком в два года. И если «El Loco» оказался слабоват по сравнению с предшественниками, то на «Eliminator» трио вернуло утраченные позиции, выдав ряд боевиков - «Sharp dressed man», «Legs», «Gimme all your lovin’». Все эти песни крутились на телевидении, в то время как пластинка продавалась в неимоверных количествах, а армия фанов «ZZ Top» неуклонно росла. Хотя «Eliminator» поднялся «всего лишь» до девятого места в «Billboard», в лучшей двадцатке он провел больше года. После также коммерчески успешного «Afterburner» коллектив взял тайм-аут на целых пять лет, вернувшись только в 1990 году с альбомом «Recycler». Этот диск стал окончанием многолетнего сотрудничества «ZZ Top» и «Warner bros». В 1994 году «бородачи» перебрались на «RCA», где начали с выпуска «Antenna». Альбом как всегда содержал серию хитов, а один из них, «She’s just killing me», прозвучал в саундтреке к культовому тарантиновскому фильму «From dusk till dawn». Тридцатилетие своего существования «ZZ Top» отметили выпуском новой студийной работы с соответствующим названием – «XXX», после чего закатились в глобальное мировое турне. К сожалению, после гастролей у Дасти Хилла обнаружился гепатит C, и ему пришлось потратить некоторое время на восстановление здоровья. В результате к полноценной деятельности коллектив вернулся только в 2003 году, когда вышел альбом «Mescalero». Скрыть...
Популярные аккорды ZZ Top:
алфавиту | просмотрам | случайно
  • rhythm guitar
    |E-|---------------------|
    |B-|---------------------|
    |G-|---------------------|
    |D-|-----------------3-5-|
    |A-|-5-5---5---5-5-5-1-3-|
    |E-|-3-3-3---1-3-3-3-----|
    | Repeat this measure over and over until
    |…
  • ---------------|-----------|
    -----5---------|-----5-----|
    -4/6---4-----2-|-4/6----/4-|
    ---------------|-----------|
    ---------------|-----------|
    
    Keep repeating those two measures like on the recording (about 4X)
    Then
    ~~~~~~~~…
  • -----|
    -----|
    -----|
    ----5|
    3-5-5|
    ----3|
    -----|
    
    and will repeat this over and over (with slight variations) until the chorus:
    
    |--------------------------|-------------------------|
    |------6--6--6--6----------|-------------------------|
    |-(5)--5--5--5--3----------|-------------------------|
    |-(5)--3--3--3--3----3--7--|-(7)--5--5-----5---------|
    |-(3)--3-----3--3----3--3--|-(3)--3--3--3--3---------|
    |--------------------------|-------------------------|
    
    as…
  • ----------------------|--------------------------------|
    ----------------------|--------------------------------|
    -------2--2--2--2--2--|.-2----2----2-4--2--2--2--2--2-.|
    ----2--2--2--2--2--2--|.-2-2--2-4--2-2--2--2--2--2--2-.|
    ----0-----------------|----0----0----------------------|
    ----------------------|--------------------------------|
    v…
  • [INTRO repeat several times]
    E-|-------------------------------------|-------------------------------------|
    B-|-------------------------------------|-------------------------------------|
    G-|-----10--8---------------------------|----10--8----------------------------|
    D-|-----10--8--10-----------------------|----10--8--10---------------------5--|
    A-|-------------------------------------|-----------------------------1h3--3--|
    E-|-------------------------------------|--------------------------3----------|…
  • e|--------------8--------------8----------8---------------------------------|
    B|----11b--------11-8--------8---11b--------11-8------8---------------------|
    G|--------------------10b------------------------10b------------------------|
    D|-------------------------------------------------------10-----8--8--------|
    A|---------------------------------------------------------------10-10/8----|
    E|--------------------------------------------------------------------------|
    
    e|----------------------------------8-----------8------8--------------------|
    B|-------------------------11b-------11-8------8-11b-----11-8--------8------|
    G|----------------------------------------10b-----------------10b-----------|
    D|-----------------1----------------------------------------------------10--|
    A|-6-----------1-3---3------------------------------------------------------|
    E|---8-8-----3--------------------------------------------------------------|
    
    e|--------------------------------------------------------------------------|
    B|--------------------------------------------------------------------------|
    G|--------------------------------------------------------------------------|
    D|-8—-8--------------1------------------------------------------------------|
    A|--10-10/8-6-------3-1-3-3-1-----------------------------------------------|
    E|------------8-8-----------------------------------------------------------|…
  • E||-----------9~---------------------|-----------------------------------|
    B||----------------------------------|--------0----0---------------------|
    G||----------------------------------|--------2h-4-2---------------------|
    D||----------------------------------|---------------4/2-0-2-------------|
    A||--7--8--9----------------------0--|-----------------------0/2---------|
    E||--------------------------3-------|-----------------------------------|
    
    -------------------------------------|-----------------------------|
    -------------------------------------|--------10-------------------|
    -----------9-7-9---7---9---7---------|-----------9b----------------|
    ---------9-------9---9---9---9-------|-----------------------------|
    -------------------------------------|-----------------------------|
    -------------------------------------|-----------------------------|
    
    ------------------|------------------|---------------------------|
    ------------------|------------------|---------------------------|
    ------------------|------------------|--------9b-----------------|
    ------------------|------------------|---------------------------|
    ------------------|------------------|---------------------------|
    ------------------|------------------|---------------------------|
    
    --------------------------------------------------|
    --10----------------------------------------------|
    -----9b9--7-9-7h9-7-9-7-9-7h9-7h9-7---------------|
    ------------------------------------9-7h9-7-------|
    --------------------------------------------9h7-5-|
    --------------------------------------------------|
    
    -----------------------------|------------------|
    -----------------------------|------------------|
    -----------------------------|------------------|
    -----------------------------|------------------|
    --7b-7--5--------------------|------------------|
    -----------------------------|------------------|
    
    -------------------7-10-----------|------------------------------------|
    ----------------------------------|------------------------------------|
    ----9b------------------9b-9-7--9-|--7h9-7h9-7h9-7---------------------|
    ----------------------------------|----------------9-7-----------------|
    ----------------------------------|--------------------9---------------|
    ----------------------------------|------------------------------------|
    
    ------------------|------------------------------|
    ------------------|------------------------------|
    ------------------|--------------------9b-9--7-9-|
    ------------------|------------------------------|
    ------------------|------------------------------|
    ------------------|------------------------------|
    
    ---------------------------------7-10b|
    -------------------------------7------|
    ----7----------------------7-9b-------|
    --9---9-9-------9--------9------------|
    --------------------------------------|
    --------------------------------------|
    
    --7------------------------------------------|
    ----7-------------7-----------------10b------|
    ------9b9h7-9-9-----7------------------------|
    ----------------9-----9-9-7------------------|
    ---------------------------------------------|
    ---------------------------------------------|
    
    ---------------7-----------------------------------|
    -----------------10-7-10---------------------------|
    -------------------------9b9-7-9-9---7-9-9-9-7---9-|
    -----------------------------------9-----------9---|
    ---------------------------------------------------|
    ---------------------------------------------------|
    
    -----------------------------------------------|
    ----7------------------------------------------|
    ------7-------------------7-9-9b9h7-----9b-9h7-|
    --9-----9-9~------7---7-9----------------------|
    --------------------9--------------------------|
    -----------------------------------------------|
    
    ------7-10---7------------------------------------|
    -----------9---7----------7-----------------------|
    --9-7------------9b-7---9---7-------7---7-9---7-9-|
    ----------------------9-------9-9-9---9-----9-----|
    --------------------------------------------------|
    --------------------------------------------------|
    
    --------------------------12-12b--12----10----|--12b---------------------------|
    --------------------------12---------12----12-|--------------------------------|
    --9b9-7-9-7-9-9-7-----------------------------|-----------------------9-7-9-7--|
    ----------------------------------------------|--------------------------------|
    ----------------------------------------------|--------------------------------|
    ----------------------------------------------|--------------------------------|
    
    ---------------------------------------------|
    ---------------------------------------------|
    --9b---7---9---7-----------------9-9-9-7-9-9-|
    ---------9---9---9-9-7-----------------------|
    -----------------------9-7-5-----------------|
    -----------------------------7---------------|
    
    ----------------------------------------7--|
    ------7---7-----------------7-------10-----|
    --9-9---9---7---9---7-9-9-9----------------|
    --------------9---9------------------------|
    -------------------------------------------|
    -------------------------------------------|
    
    --10--7--12b-----10-------------10-----|--12b-----------------------|
    --------------------12~-------------12-|----------------------------|
    ---------------------------------------|----------------------------|
    ---------------------------------------|----------------------------|
    ---------------------------------------|----------------------------|
    ---------------------------------------|----------------------------|
    
    ----------------------------------------|---|---|---|---|---|---|---|---|---|
    ----------------------------------------|---|---|---|---|---|---|---|---|---|
    --------9--7-9----------2h4-2-----------|---|---|---|---|---|---|---|---|---|
    ----------------9~------------4h2-0-2/4-|---|---|---|---|---|---|---|---|---|
    ----------------------------------------|---|---|---|---|---|---|---|---|---|
    ----------------------------------------|---|---|---|---|---|---|---|---|---|…
  • The rhythm is repetitious, a straightforward 12 bar blue pattern. I don't
    play the solo on this one, just the rhythm, so that's all I've provided.
    I play it with these chords:
    
    Em7	075700
    E	X7999X
    D	X5777X
    A5	57XXXX
    A6…
  • (I don't know the first 2 or three measures, which are a cool little intro)
    
    ----------------------|-----------------|------------------|------------------|
    ----------------------|-----------------|-8b---------------|------------------|
    ----------6-7h9-------|(9)p7-------7h9--|-----------7h9----|(9)p7-------x-----|
    ----------------------|-----------9-----|---------9--------|-------------x----|
    ----------------------|-----------------|------------------|--------------5h7-|
    ----------------------|-----------------|------------------|------------------|
    
    ----------------------|
    ----------------------|
    ---9----9--------9--9-|---------------------repeat----------------------->
    ---9----9--------9--9-|
    -7-7----7--------7--7-|
    -0--------------------|
    
    ⁄⁄
    ------------------|---------------------|------------------|------------------|
    ------------------|---------------------|------------------|------------------|
    ------------------|---------------------|------------------|------------------|
    ------------------|---------------------|------------------|------------------|
    -5--------5-7-7-7-|---------------------|------------------|------------------|
    ------------------|---------------------|------------------|---------x-17⁄----|
    
    ------------------|---------------------|------------------|------------------|
    ------------------|---------------------|------------------|------------------|
    ---7----7-----7-7-|----7-----7------7-7-|-9-9----9-----9-9-|-9--9-----9-------|
    -7-7----7-----7-7-|-7--7-----7------7-7-|-9-9----9-----9-9-|-9--9-----9-------|
    -5------5-----5-5-|-5--------5------5-5-|-7-7----7-----7-7-|-7--7-----7-------|
    ------------------|---------------------|------------------|------------------|
    
    ----0-0-0-0--0-----------|
    ---/5-5-5-5--5-----------|
    ---/4-4-4-4--4-2b3b2-0h1-|
    -------------------------|
    -------------------------|
    -0-----------------------|
    
    ------------------------|
    --/5-5-5-5--5-----------|
    -1/4-4-4-4--4-2b3b2-0h1-|…
  • Tuning:Standard Moderately Fast-120 BPM
        Rhy.Fig 1. Synthesizer arr for guitar and 1and 2 Verses of Song
    E|--------------------------------------------------------------------------------|
    B|--------------------------------------------------------------------------------|
    G|--------------------------------------------------------------------------------|
    D|-------6-----6-------------------6-----6----------------------------------------|
    A|--8----4-----4--8----8----8------4-----4----------------------------------------|
    E|--6-------------6----6----6-----------------------------------------------------|…
  • Intro
    
    ----------------------|---------------------|--------------------|
    -13--------------9/10-|-13-------------9/10-|-13------------9/10-|
    ----10--------10-9/10-|----10----------9/10-|---10-------10-9/10-|
    -------12-12----------|-------12-12---------|------12-12---------|
    ----------------------|---------------------|--------------------|
    ----------------------|---------------------|--------------------|
    
    ------------------------|
    -------------------9/10-|
    -13b12-10----------9/10-|
    -------------10h12------|
    ----------12------------|
    ------------------------|
    
    
    
    For…
  • -------------------|
    -------------------|
    -------5-----------|
    -------5-----------|
    -------3-----------|
    -------------------|
    
    
    ----------------------------------------|
    ----------------------------------------|
    --5------5--------5---------5-----------|
    --5--------5--------5---------5---------|x2
    --3--3-3-----3-3-3----3-3-3-----3-3-3---|
    ----------------------------------------|
    
    the…
  • This is possibly tuned down to Eb :-)
    
         Intro                                   Fourth Time Skip                  
    ||----------------------------------------|----------------||--------|---------
    ||----------------------------------------|----------------||--------|---------
    ||*---------------------------------------|---2--2--------*||--------|---------
    ||*---------2-----2--------2-----2--------|---2-----0--2--*||--------|---------
    ||----------2-----2--------2-----2--------|----------------||--------|---------
    ||----0--0-----0-----0--0-----0-----0--0--|----------------||--3--0--|---------
    (heavy…
  • I---TUNE--1----------------I--------------------ENDING 1I-----
    I--------------------------I----------------------------I----------
    I--------------------------I-----------------------------I----------
    I-2--2---0h2--0h2-2----0h2-I-0h2-…
  • Intro:
    
    |------------|
    |-5-5--5-----|
    POKE!|-5-5--5-----| (Plucked with fingers)
    |-5-5--5-----|
    |------------|
    |------------|
    
    
    PH
    |-----------------------------|--------------------------------|
    |-----------------------------|--------------------------------|
    |-7^p5------------------------|-7^p5-7^~~~---------------------|
    |------7~~~-------------------|--------------------------------|
    |-----------------------------|--------------------------------|
    |-----------------------------|--------------------------------|
    
    
    |-----------------------------|--------------------------------|
    |-----------------------------|--------------------------------|
    |-7^p5------------------------|-7^p5-7^(slow…
  • (Intro)
    |-----|------------------|-----------------|-----------------|
    |-----|------------------|-----------------|-----------------|
    |---3-|-(3)--3-3-3-3-3-3-|-3-3-3-3-3-3-3-3-|-3-3-3-3-3-3-3-3-|
    |-----|------------------|-----------------|-----------------|
    
    |--------------|----------------|--------------|
    |--------------|-3--3-3-3-3-3-3-|-3-3----------|
    |-3------------|----------------|-----0--1--2--|
    |---0----1--3--|----------------|--------------|
    
    |----------------|----------------|----------------|
    |----------------|--------------5-|-5-5-5-5-5----0-|
    |-3--3-3-3-3-3-3-|-3-3-3-3-3--5---|----------------|
    |----------------|----------------|----------------|
    
    |----------------|---------------|-------------||
    |-3--3-3-3-------|---------------|-------------||
    |----------0-1-3-|-(3)-----------|----0--1--2--||
    |----------------|------0--1--2--|-3-----------||
    
    |----------------|-----------------|-----------------|
    |----------------|-----------------|-----------------|
    |-3--3-3-3-3-3-3-|-3-3-3-3-3-3-3-3-|-3-3-3-3-3-3-3-3-|
    |----------------|-----------------|-----------------|
    
    |-----------------|----------------|-------------|
    |-----------------|-3--3-3-3-3-3-3-|-3-----------|
    |-3-3-3-3-3-3-3-3-|----------------|----0--1--2--|
    |-----------------|----------------|-------------|
    
    |----------------|-----------------|-------------------|
    |----------------|-----------------|-5-----5-(5)-------|
    |-3--3-3-3-3-3-3-|-3-3-3-3-3-3-5-5-|-------------------|
    |----------------|-----------------|---3-3-------3-3-3-|
    
    |------------------|--------------|-------------||
    |-------3-(3)------|--------------|-------------||
    |--------------0-1-|-3------------|----0--1--2--||
    |-1-1-1------------|---0----1--2--|-3-----------||
    
    (Verse)
    |----------------|-----------------|----------------|
    |----------------|-----------------|----------------|
    |-3--3-3-3-3-3-3-|-3-3-3-3-3-3-3-3-|-3-3-3-3-3-3----|
    |----------------|-----------------|-------------1--|
    
    |-------------|----------------|-------------|
    |-------------|-3--3-3-3-3-3-3-|-3-----------|
    |-------------|----------------|----0--1--2--|
    |-0--1--2--3--|----------------|-------------|
    
    |-----------------|-----------------|-----------------|
    |-----------------|-----------------|-5-5-5-5-5-5-5-0-|
    |-3-3-3-3-3-3-3-3-|-3-3-3-3-3-3-3-3-|-----------------|
    |-----------------|-----------------|-----------------|
    
    |-----------------|---------------|--------------||
    |-3-3-3-3-3-3-----|---------------|--------------||
    |-------------0-1-|-3-3-----------|-3------------||
    |-----------------|-----0-0-1--2--|----0--1--2-3-||
    
    (Chorus)
    |----------------|-----------------|-----------------|
    |----------------|-----------------|-----------------|
    |-3--3-3-3-3-3-3-|-3-3-3-3-3-3-3-3-|-3-3-3-3-3-3-3-3-|
    |----------------|-----------------|-----------------|
    
    |-----------------|-----------------|-----------------|
    |-----------------|-----------------|-----------------|
    |-3-3-3-3-3-3-3-3-|-----------------|-----0-0-1-1-2-2-|
    |-----------------|-1-1-1-1-1-1-1-1-|-1-1-------------|
    
    |-----------------|-----------------|-------------------|
    |-----------------|-----------------|-5-----5-(5)-------|
    |-3-3-3-3-3-3-3-3-|-3-3-3-3-3-3-5-5-|-------------------|
    |-----------------|-----------------|---3-3-------3-3-3-|
    
    |------------------|--------------|-------------||
    |-------3-(3)------|--------------|-------------||
    |--------------0-1-|-3------------|----0--1--2--||
    |-1-1-1------------|---0----1--2--|-3-----------||
    
    (During…
  • ------------------|--------------|
    ------------------|--------------|
    ----2-----2-----2-|----7---7-7---|
    ----2-----2-----2-|----7---7-7---|
    -0--------0-----0-|--0---0-------|
    ------------------|--------------|
    
    ⁄⁄
    
    ------------------|--------------|
    ------------------|--------------|
    ----2-----2-----2-|----7---7-7---|
    ----2-----2-----2-|----7---7-7---|
    -0--------0-----0-|--0---0-------|
    ------------------|--------------|
    
    --------------|
    --------------|
    -------5h7p5p0|
    ---5----------|
    -0---0--------|
    --------------|
    
    ⁄⁄
    
    ------------------|--------------|
    ------------------|--------------|
    ----2-----2-----2-|----7---5-7---|
    ----2-----2-----2-|----7---5-7---|
    -0--------0-----0-|--0---0-------|
    ------------------|--------------|
    
    ------------------|--------------|
    ------------------|--------------|
    -5b---------------|--------5-----|
    -5b---------------|----5h7--7-5-7|
    ------------------|--0-----------|
    ------------------|--------------|
    
    ⁄⁄
    
    ------------------|--------------|
    ------------------|--------------|
    ----2-----2-----2-|----7---7-7---|
    ----2-----2-----2-|----7---7-7---|
    -0--------0-----0-|--0---0-------|
    ------------------|--------------|
    
    ------------------|
    ------------------|
    ------------------|
    ------5-----------|
    ------------------|
    ------------------|
    
    ⁄⁄
    
    ------------------|--------------|
    ------------------|--------------|
    ----2-----2-----2-|----7---7-7---|
    ----2-----2-----2-|----7---7-7---|
    -0--------0-----0-|--0---0-------|
    ------------------|--------------|
    
    ⁄⁄
    
    ------------------|
    ------------------|
    ----2-----2-----2-|
    ----2-----2-----2-|
    -0--------0-----0-|
    ------------------|…
  • Verses 1 and 2
    (1)                       (2)
    E----------¦-------------¦¦---------¦-----------¦
    B--4/6-6---¦-------------¦¦-----6---¦-----------¦
    G--5/7-7-0-¦-0-3-5-------¦¦-----7-0-¦-3-5-------¦
    D--------0-¦-0-3-5-------¦¦-------0-¦-3-5-------¦
    A----------¦-------1-3-3-¦¦---------¦-----1-3-3-¦
    E----------¦-------------¦¦-1-3-----¦-----------¦
    Play…
  • ---------------|------------|----------------|---------------|
    ---------------|-----5------|----------------|---------------|
    ----5---5-3----|-5---5-3----|----5---5-3-----|-5---5-3-------|
    ----5---5-3----|-5---5-3----|----5---5-3-----|-5---5-3-------|
    ---------------|------------|----------------|---------------|
    3-3---3------3-|---3------1/|3-3---3-----3-3-|---3-------3-1/|
    
    Ive…
  • ---------------|
    ---------------|
    -9-9⁄7---9-9⁄7-|
    -9-9⁄7-7-9-9⁄7-|
    -------7-------|
    ---------------|
    
    -----------------|---------------|
    -----------------|---------------|
    -----------------|---9⁄7---9-9⁄7-| repeat this…
  • 4/4
    Gtr I
    ~~
    
    E|---8--------------------------------------------------------|
    B|--11b13r11--------------------------------------------------|
    G|-------------10b11r10-10-8b8.5------------------------------|
    D|--------------------------------10--8-------8---------------|
    A|--------------------------------------8--10---10s8-6--8--6--|
    E|------------------------------------------------------------|
    
    E|-----------------------------|
    B|-11b13r11--------------10----|
    G|------------10b12r10-8-10----|
    D|--------------------------10-|
    A|-----------------------------|
    E|-----------------------------|
    
    E|-------------------------------------------|
    B|-10s11-11-11-10s11-11-11-10s11-11-11-------|
    G|-11s12-12-12-11s12-12-12-11s12-12-12-10--8-|
    D|-------------------------------------10--8-|
    A|-------------------------------------------|
    E|-------------------------------------------|
    
    E|-8----8----------------------------|
    B|-----------------------------------|
    G|--------------10b11r=10--8---------|
    D|---------------------------10---10-|
    A|-----------------------------------|
    E|-----------------------------------|
    
    E|------------8-----------20--18--18--18-|
    B|----------------10--20-----------------|
    G|-10b12--10-----------------------------|
    D|---------------------------------------|
    A|---------------------------------------|
    E|---------------------------------------|
    
    E||---------------------|----------------------|
    B||o--------------------|----------------------|
    G||---------------------|----------------------|
    D||---------------------|-10-12-10-10-10-12-10-|
    A||o-10-12-8-10-10-12-8-|--8--8--8--8--8--8--8-|
    E||---8--8-8--8--8--8-8-|----------------------|
    
    E|------------------------------|------------------|
    B|------------------------------|------------------|
    G|------------------------------|------------------|
    D|-10-12-8-10-10-12-10-10-12-10-|------------------|
    A|--8--8-8--8--8--8--8--8--8-10-|-10-12-8-10-10-12-|
    E|------------------------------|--8--8-8--8--8--8-|
    
    E|---------------------------------------|
    B|-11-11-11-------11-11-------11-11------|
    G|-12-12-12-11S12-12-12-11S12-12-12-10-8-|
    D|----------------------------------10-8-|
    A|---------------------------------------|
    E|---------------------------------------|
    
    E|------------------------------------------------------------------|
    B|-10b12r=10-8------------------------------------------------------|
    G|-10b12r=10-8------------------------------------------------------|
    D|-------------10--10------10---10---10---10---10---10---10---10-10-|
    A|------------------------------------------------------------------|
    E|---------------------6S8----8----8----8----8----8----8----8-------|
    
    E|---------------------------------------------------|
    B|-10b11r=10--8--------------1---3---1---3---1---3---|
    G|-10b11r=10--8--------------1---3---1---3---1---3---|
    D|--------------10--10--1--3---3---3---3---3---3---3-|
    A|---------------------------------------------------|
    E|---------------------------------------------------|…
  • intro
    ---------------------------------------------------------------|
    ---------------------------------------------------------------|
    --------------------------------------------------5------------|
    --------------------------------------------------5------------|
    --0-0-----0-0-----0-0-----0-0-----0-0-----0-0-----3-0----0-----|
    ------3h4-----3h4-----3h4-----3h4-----3h4-----3h4-----3h4-5/0--|
    
    
    -------------------------------------------------------|
    -------------------------------------------------------|
    --7b---7b------7b------------7b---7b------7b-----------|
    -----8----8-------8-7b-8-8------8----8-------8-7b-8-8--|
    -------------------------------------------------------|
    -------------------------------------------------------|
    
    
    --------------------------------------------------------------|
    --------------------------------------------------------------|
    --------------------------------------------------5-----------|
    --------------------------------------------------5-----------|x2
    --0-0-----0-0-----0-0-----0-0-----0-0-----0-0-----3-0-----0---|
    ------3h4-----3h4-----3h4-----3h4-----3h4-----3h4-----3h4-----|
    
    
    ---------------------------------------------------------------|
    ---------------------------------------------------------------|
    --------------------------------------------------5------------|
    --------------------------------------------------5------------|x3
    --0-0-----0-0-----0-0-----0-0-----0-0-----0-0-----3-0----0-----|
    ------3h4-----3h4-----3h4-----3h4-----3h4-----3h4-----3h4-5/0--|
    
    
    ------------------------------------------------------------------------|
    ------------------------------------------------------------------------|
    ------------------------------------------------------------------2b-2b-|
    ------------------------------------------------------------------------|
    --0-0-3h4-0-0-3h4-0-0-3h4-0-0-3h4-0-0-3h4-0-0-3h4-0-0-3h4-0-0-3h4-------|
    ------------------------------------------------------------------------|
    
    
    -------------------------------------------------------------------|
    -------------------------------------------------------------------|
    -------------------------------------------------------------------|
    -------------------------------------------------------------------|
    --0-0-----0-0-----0-0-----0-0-----0-0-----0-0-----0-0-----0-0------|
    ------3h4-----3h4-----3h4-----3h4-----3h4-----3h4-----3h4-----3h4--|
    
    
    just…
  • G|------|-----------------------------------------|
    D|------|---5---------------------------5---------|
    A|-REST-|-8---8-5-5555-------55555--5-8---8-5-----|
    E|------|---------------8-8-----------------------|
    
    G|----------------------------------|
    D|------------------------5---------|…
  • ---------------|-------------|--------------|-----------|-------------|
    -6h8--8--------|-----------6-|-6H8-8-8------|-----------|-6H8-8-8-----|
    ---------------|-------------|--------------|-----------|-------------|
    ---------5-5h7-|-5-3---5-----|--------------|-5-3-3-5⁄3-|-------------|
    ---------5-5h7-|-5-3---5-----|--------------|-5-3-3-5⁄3-|-------------|
    ---------3-----|-----3-------|--------------|-3-----3---|-------------|
    
    ⁄⁄
    My
    ------------|---------------|------------|
    ------------|-6H8--8--------|------------|
    ------------|---------------|------------|
    -5-3-3-5⁄3--|-------5-5---5-|-5-3-3-5⁄3--|
    -5-3-3-5⁄3--|-------5---5---|-5-3-3-5⁄3--|
    -3----------|---------------|-3-----3----|
    
    ⁄⁄
    charcoal's…
  • intro:
    A main riff
    E--5-| |-----------|-----------|-----------|-----------|
    B--5-| |-5p0-0-----|-5p0-0-----|-5p0-0-----|-7p0-0-5---|
    G--6-| |-5p0-0-6-6-|-5p0-0-6-6-|-5p0-0-6-6-|-7p0-0-5---|
    D--7-| |-5p0-0-7-7-|-5p0-0-7-7-|-5p0-0-7-7-|-7p0-0-5-5-|…
  • e|-----------------------------------------------------------------------------
    b|-8------8---H^---------------------------------------------------------------
    G|----10-----8--10----------------------P^-------------------------------------
    D|------------------10--8--10------8--10--8----S-------------------------------
    A|-----------------------------10------------10⁄-8------8--10------------------
    E|--------------------------------------------------11---------8---------------
    
    e|-------------------------------------------------------11--------------------
    b|-----------W--------x-8----P^----------------S-----11------13----------------
    G|-----8--10^--8------x-8--10--8----------8--10/-12--------------12------------
    D|-10-------------10--------------10--10---------------------------------------
    A|-----------------------------------------------------------------------------
    E|-----------------------------------------------------------------------------
    
    e|-----------------------------------------------------------------------------
    b|-----11--------S------H^-----------------------------------------------------
    G|-12------12--10/-12--8--10-------------8--------------8----------------------
    D|----------------------------10--8--10-----10------10-------------------------
    A|----------------------------------------------10-----------------------------
    E|-----------------------------------------------------------------------------…
  • Em C Em C ...
    
    Tuning: DGCFAD
    D||-------------------------------|--0--------------0--------------|
    B||----------------0-----5--0--3⁄-|--0--------------0-----5--0--3⁄-|
    G||----------------0--0--5--0--3⁄-|--0--------------0--0--5--0--3⁄-|
    D||----------------0--0--5--0--3⁄-|--0--------------0--0--5--0--3⁄-|
    G||-------------------------------|--------------------------------|
    D||-------------------------------|--------------------------------|
    
    E|-0--------------0--------------|--0--------------0----------------|
    B|-0--------------0-----5--0--3⁄-|--0--------------0-----5--0--3/12-|
    G|-0--------------0--0--5--0--3⁄-|--0--------------0--0--5--0--3/12-|
    D|-0--------------0--0--5--0--3⁄-|--0--------------0--0--5--0--3/12-|
    A|-------------------------------|----------------------------------|
    E|-------------------------------|----------------------------------|
    
    E|-0--------15⁄---0----------------|--0-------------------0--------------|
    B|-0--------15⁄---0-------5--0--3⁄-|--0--11⁄---5/---12~---0-----5--0--3⁄-|
    G|-0--------------0----0--5--0--3⁄-|--0--11⁄---5/---12~---0--0--5--0--3⁄-|
    D|-0--------------0----0--5--0--3⁄-|--0--11⁄---5/---12~---0--0--5--0--3⁄-|
    A|---------------------------------|-------------------------------------|
    E|---------------------------------|-------------------------------------|
    
    E|------------12----------------------------|
    B|-0--11/-12------12---------------5--0--3⁄-|
    G|-0--11/-12----------12----12--0--5--0--3⁄-|
    D|-0------------------------12--0--5--0--3⁄-|
    A|------------------------------------------|
    E|------------------------------------------|
    
    Know…
  • intro
    G C/G G C/G
    E-3--3--|-3--3--|
    B-0--1--|-0--1--|
    G-0--0--|-0--0--|
    D-0--2--|-0--2--|
    A-2--x--|-2--x--|
    E-3--3--|-3--3--|
    
    verse 1
    G C/G G C/G G C/G G C/G
    E-3--3--|-3--3--|-3--3--|-3--3--|
    B-0--1--|-0--1--|-0--1--|-0--1--|
    G-0--0--|-0--0--|-0--0--|-0--0--|
    D-0--2--|-0--2--|-0--2--|-0--2--|
    A-2--x--|-2--x--|-2--x--|-2--x--|
    E-3--3--|-3--3--|-3--3--|-3--3--|
    
    C…
  • E|-----------------------------|
    B|-----------------------------|
    G|-----------------------------|
    D|-----------------------------|
    A|-----------------------------|
    E|-1h3-1h3-6-3p1h3-1h3-6-3p1h3-|
    
    E|-----------------------------|------------------|
    B|-----------------------------|------------------|
    G|-----------------------------|------------------|…
  • [------------------------------------------------------------------------
    [--------4-------------------2--------------------1--------------------
    [------------5------------------3--------------------2--------------2--
    [------5------------------3-------------------2------------------3-----
    [--------------------------------------------------------------3---------
    [-3--------------1-1-------------------0-0--------------1--------------
    
    [----------------------------------------------------0--0
    [--------4--------------------------------------1------0
    [------------5----------------4--------------------------
    [----5---------------------3------------2---------------
    [-----------------------3---------------------------------
    [-3---------------1-1-------------0---------------------
    
    verse
    [---------------------
    [---------------------…
  • ------------------------------------|
    ------------------------------------|
    ------------7-----------------------|
    ---9-9-7-9--7-----------------------|
    ---7-7-5-7--5--------------5--------|
    -----------------5h7p5h7p5----------|
    
    
    ----------------------------|
    --3s5-hold--3s5-3-----------|
    --2s4-hold--2s4-2-----------|
    ----------------------------|
    ----------------------------|
    ----------------------------|
    
    this…
  • <  = hammer on or pull off
    
    Intro:
    RIFF 1
    E------------------|----------------|----------------|------------------|
    B------------------|----------------|----------------|------------------|
    G-----------------|------------5---|----------------|-------------5---|
    D-7---5---7---5----|---7-7--5-----|-7--5---7---5-|--7-7---5-------|
    A------------------|----------------|----------------|------------------|
    E------------------|----------------|----------------|------------------|
    
    Repeats
    RIFF1
    Have…
  • Intro
    e|--------------------------------------------------------------------------
    B|---------5--------7-----5--------------------------2-----5-----7-----5----
    G|---------5--------7-----5--------0--------0--------2-----5-----7-----5----
    D|---------5--------7-----5--------0--------0--------2-----5-----7-----5----
    A|---0--0-----0--0-----0-----0--0-----0--0-----0--0-----0-----0-----0-----0-
    E|--------------------------------------------------------------------------
    
    Riff…
  • For the rhythm guitars of this song, keep doing this:                    
    E-|------------------|
    B-|------------------|
    G-|------------------|
    D-|------------------|
    A-|--2-2-4-2-2-2-4-0-|
    E-|--0-0-0-0-0-0-0-0-|…
  • Intro
    (4x)
    |--9----9------9----9------|--9----9------9----9------|
    |--10---10-----10---10-----|--10---10-----10---10-----|
    |--------------------------|--------------------------|
    |--------------------------|--------------------------|
    |--------------------------|--------------------------|
    |-----0----0-0----0----0-0-|-----0----0-0----0----0-0-|
    
    Verse
    |-----------------------------------------------------|
    |-----------------------------------------------------|
    |-----------------------------------------------------|
    |--0h2--------------2-2---------2-----2-----0h2-------|
    |-------------------0-0-------------------------------|
    |---------------------------------3p0---3p0-----------|
    You…
  • Standard tuning (eadg)
    
    
    keep repeating this until u hear the change
    g------------------------------------------
    d------------------------------------------
    a------------------------------------------
    e-5-5-5-5-5-5-5-5-0-3-5-5-5-5-5-5-5-5-0-3-5
    
    play…
Наверх