Аккорды «Aerosmith»

Aerosmith
Одна из наиболее популярных хард-рок-групп в США, "Aerosmith", несмотря на свое тридцатилетнее существование, похоже так же не имеет возраста, как и ее полный жизни и энергии солист Стив Тайлер. Возможно, поэтому среди ее преданных поклонников немалую часть составляют зрители, которые подчас моложе тех песен, что поют участники группы. История "Aerosmith" началась в 1970 году. Именно тогда встретились ударник и вокалист Стив Тайлер и гитарист Джо Перри. К этому моменту Стив… Читать полностью... Одна из наиболее популярных хард-рок-групп в США, "Aerosmith", несмотря на свое тридцатилетнее существование, похоже так же не имеет возраста, как и ее полный жизни и энергии солист Стив Тайлер. Возможно, поэтому среди ее преданных поклонников немалую часть составляют зрители, которые подчас моложе тех песен, что поют участники группы. История "Aerosmith" началась в 1970 году. Именно тогда встретились ударник и вокалист Стив Тайлер и гитарист Джо Перри. К этому моменту Стив Тайлер, который играл в различных группах, уже выпустил два сингла: "When I Needed You", записанный с его собственной группой "Chain Reaction", и "You Should Heve Been Here Yesterday", исполненный вместе с Уильямом Праудом и группой "The Strangeurs". Джо Перри работал тогда в кафе-мороженое и играл в "Jam Band". Его товарищем по "Jam Band" был бас-гитарист Том Гамильтон. Создавая свою команду, Тайлер и Перри пригласили Гамильтона, а также еще двоих: ударника Джоя Крамера и гитариста Рея Табано . В новой группе Тайлер должен был играть роль, для которой он был рожден - роль вокалиста. Рей Табано оставался в группе недолго. Вместо него к команде присоединился гитарист Брэд Уитфорд (Brad Whitford, 23.02.1952. Уинчестер, Массачусетс, США), начавший выступать с 16 лет и имевший в послужном списке группы "Justin Time", "Earth Inc.", "Teaport Dome" и "Cymbals Of Resistance". Первое выступление квинтета состоялось в региональной средней школе Nipmuc, а вскоре после этого появилось название "Aerosmith". Говорят, что это имя предложил Джой Крамер, и оно было единственным, которое не вызвало возражений у остальных музыкантов (хотя других вариантов было достаточно, например, "The Hookers"). В конце 1970 года "Aerosmith" перебрался в Бостон (Массачусетс) и провел ближайшие два года, выступая в барах, клубах и на школьных вечеринках как в Бостоне, так и в других городах. В 1972 году на концерте группы в Канзас-Сити оказался Клайв Дэвис (Clive Davis), менеджер Columbia/CBS Records. Последовал аванс в 125 тыс.долларов, и осенью 1973 года увидел свет первый альбом группы под названием "The Aerosmith". Успех альбома был скромным, а классическая ныне баллада "Dream On" заняла в Billboard всего лишь 59 место. "Aerosmith" продолжал концертные турне, и число его поклонников росло. В это время поступил в продажу второй альбом группы "Get Your Wings" (продюсер Джек Дуглас (Jack Douglas)). В 1975 году вышел "Toys In The Attic", справедливо считающийся одним из самых лучших альбомов группы (количество проданных на сегодня копий превышает 6 млн.экз.). Сингл "Sweet Emotion" получил 11 место в Billboard, а возросшая популярность группы привлекла внимание к их старым работам, и "Dream On" попала в первую десятку лучших песен. Следующий альбом, "Rock", обрел платиновый статус в течение нескольких месяцев. Несмотря на успех у зрителей, "Aerosmith" не нашел одобрения у критиков. Музыкальные обозреватели и позже не баловали команду похвалами, а в то время вообще именовали ее "производной" от других групп, в частности от "Led Zeppelin" и "Rolling Stones". Последнему способствовало и внешнее сходство Тайлера с Миком Джаггером (Mick Jagger). Группа попала в центр внимания публики и извлекла из этого все самые негативные возможности. Турне, приглашения сопровождались попойками и наркотиками. Нельзя сказать, что "Aerosmith" утратил стиль. "Draw The Line" (1977) и мощный "Live! Bootleg" (1978) принесли им всеобщее признание. И тем не менее команда теряла силу. В 1978 году "Aerosmith" предпринял концертное турне по США, а в конце года квинтет записал саундтрек фильма "Sgt Pepper’s Lonely Hearts Club Band". Их киногерои, группа "Future Villian Band", пели кавер-версию песни "Beatles" "Come Together" . Эта композиция вошла в USA Top30. Тем временем внутри группы росли разногласия. Конфликт между Тайлером и Перри достиг высшей точки, и после релиза в 1979 году "Night In The Ruts" гитарист покинул группу. Перри начал работать с "Joe Perry Project", а на его место пришел Джимми Креспо (Jimmy Crespo). В следующем году ушел Брэд Уитфорд. Вместе с бывшим гитаристом "Ted Nugent" Дереком Сен-Холмсом он создал группу "Whitford - St.Holmes Band". Заменил Уитфорда Рик Дюфей (Rick Dufay). С двумя новыми гитаристами "Aerosmith" выпустил в 1982 году последний успешный альбом "Rock In A Hard Place", уже не имевший того вдохновения, которым отличались классические записи группы. Сольные проекты Перри и Уитфорда не оправдали их надежд. "Aerosmith" без старых гитаристов не стал лучше. В Валентинов день 1984 года во время шоу в бостонском Orpheum Theatre за кулисами произошла встреча Перри и Уитфорда с бывшими коллегами. На радость поклонникам группа воссоединилась. Состоялось турне "Back In The Saddle", а в 1985 году на Geffen Records был записан "Done With Mirrors" (продюсер Тед Темплман (Ted Templeman)). Его продажи были не очень велики, но альбом показал, что группа вернулась. После релиза Тайлер и Перри успешно прошли реабилитационную программу для алкоголиков и наркоманов, и квинтет продолжил свой путь наверх. В 1986 году "Aerosmith" выступил вместе с группой "Run-DMC", аккомпанируя им для своей композиции "Walk This Way". Сотрудничество со Старой школой рэпперов привело к созданию международного хита, и бывший сингл из USA Top10 вновь попал в лучшую десятку. Выпущенный в 1987 году "Permanent Vacation" стал альбомом-бестселлером (5 млн.экз.) и первым альбомом "Aerosmith", завоевавшим чарты Великобритании. Сингл "Dude (Looks Like A Lady)" получил 14 место в чартах США. Альбом "Pump" (1989) был продан в количестве 6 млн.экз., а сингл "Love In An Elevator" вошел в USA Top10. Альбом "Get A Grip" 1993 года (композиции "Cryin" , "Crazy" "Amazing" получил №1 в Billboard и стал платиновым. Немалую роль в феноменальном успехе этих трех альбомов (продюсер Брюс Фейрбэйрн (Bruce Fairbairn)) сыграло Music video. Клипы "Aerosmith" постоянно повторялись на MTV, что позволило познакомиться с творчеством группы подрастающему поколению, и квинтет резко увеличил число своих поклонников. Далее последовал "Big Ones" (1996), альбом, записанный на Geffen Records. А затем "Aerosmith" триумфально вернулся в Columbia Records, где начинались их первые шаги, подписав мультимиллионную сделку с Sony Music. Ее результатом был альбом "Nine Lives" (март 1997) и гастроли "Aerosmith" в Европе, а затем по США. Турне "Pollstar" принесло 22,3 млн.долларов и вошло в десятку самых успешных туров года. А в сентябре группа была удостоена награды MTV в категории "Лучшее рок-видео" за композицию "Falling In Love (Is Hard On The Knees)". В этом же месяце вышла автобиография группы "Walk This Way", написанная совместно со Стефеном Дэвисом (Stephen Davis) (автором книги о "Led Zeppelin"). Искренняя, открытая книга стала бестселлером. 1998 год принес группе новую славу, но сопровождался жизненными невзгодами. Во время концерта, по-видимому, сорвалась подставка микрофона, и Тайлер повредил ногу настолько серьезно, что потребовалось хирургическое вмешательство. Джой Крамер попал в аварию. Сам он не пострадал, но машина, в которой находилась ударная аппаратура, сгорела полностью. Вследствие этого ожидаемое турне по Северной Америке несколько раз откладывалось. Но группа продолжала работать. В это время была записана композиция "I Don’t Want To Miss A Thing" для фильма "Армагеддон" ("Armageddon"). Саундтрек фильма о космической катастрофе принес своим создателям славу, которая и измерялась в космических масштабах: "Aerosmith" получил от MTV награду "Best Video from a Film", композиция завоевала №4 в UK Top10, а автор мелодии Дайана Уоррен (Diane Warren) получила две номинации Grammy: "Лучшая песня в кинофильме" и "Лучшая песня года". Этот год вообще был отмечен успешным выступлением музыкантов в кино. Перри сыграл в телесериале "Homicide: Life On The Street", а в экранизации новеллы Элмора Леонарда (Elmore Leonard) "Be Cool" приняла участие группа в полном составе, распределив между собой главные роли. Впрочем, музыканты привычны к киноэкрану. Фильмография одного только Стива Тайлера насчитывает почти два десятка кинолент. В октябре группа выпустила "A Little South Of Sanity", двойной CD, записанный во время гастролей, последний альбом студии Geffen Records. Весной 2000 года "Aerosmith" приступил к работе над новым диском. В роли продюсеров выступили Стив Тайлер и Джо Перри, для пластинки музыканты подготовили больше 20 песен, и лучшие из них вошли в альбом "Just Push Play". Осенью Джо Перри исполнилось пятьдесят лет, тридцать из которых он отдал группе. И самый замечательный подарок он получил от бывшего участника "Guns N' Roses" Слэша (Slash). В далекие и трудные 70-е Джо заложил свою гитару. Неоднократно он пытался ее вернуть, но безрезультатно. Слэш владел ею последние 10 лет, но ради такого случая расстался с легендарным раритетом. Начало нового тысячелетия неувядаемый "Aerosmith" отметил выходом альбома "Just Push Play" и большим всемирным турне. В марте 2001 года группа была включена в Зал Славы рок-н-ролла. Но на достигнутом музыканты останавливаться не намерены. "В нашем деле главное - не жить вчерашним днем. Мы были бы просто дураками, если бы сказали своим фанатам: "Вы знаете, мы свое дело уже сделали, лучше наших старых песен и быть ничего не может, и поэтому мы прекращаем писать что–либо новое". Мы не хотим сдаваться" - сказал Джо Перри. Да и как может быть иначе. Ведь, как давно утверждает Стив Тайлер: "Рок-н-ролл - это склад ума. Это свобода выражения себя. Это значит быть живым." Скрыть...
Популярные аккорды Aerosmith:
алфавиту | просмотрам | случайно
  • E B A C#m F# C# D#m | G D C Em A E F#m
    E--0--2--0---4---2---4----6------|-3--5--3--7---5--7---9------------
    B--0--4--2---5---2---6----7------|-3--7--5--8---5--9---10-----------
    G--1--4--2---6---3---6----8------|-4--7--5--9---6--9---11-----------
    D--2--4--2---6---4---6----8------|-5--7--5--9---7--9---11-----------
    A--2--2--0---4---4---4----6------|-5--5--3--7---7--7---9------------
    E--0--2--0---4---2---4----6------|-3--5--3--7---5--7---9------------
    
    
    (from…
  • INTRO:
    Piano/Harpsichord/Whatever (arranged for guitar)
    
    e|-4-----4----|-3-----3----|-4-----4----|-3-----3----|
    B|-6-----6----|-4-----4----|-3-----3----|-2-----2----|
    G|----5-----5-|----5-----5-|----5-----5-|----5-----5-|
    D|------------|------------|------------|------------|
    A|------------|------------|------------|------------|
    E|------------|------------|------------|------------|
    
    E|-4-----4----|-6-----6----|--8-----8----|--8--------|
    B|-6-----6----|-8-----8----|--9-----9----|--9--------|
    G|----5-----5-|----5-----5-|-------------|-----------|
    D|------------|------------|----10----10-|-----------|
    A|------------|------------|-------------|-----------|
    E|------------|------------|-------------|-----------|
    
    E|-4-----4----|-3-----3----|--4-----4----|-3-----3----|
    B|-6-----6----|-4-----4----|--3-----3----|-2-----2----|
    G|----5-----5-|----5-----5-|-----5-----5-|----5-----5-|
    D|------------|------------|-------------|------------|
    A|------------|------------|-------------|------------|
    E|------------|------------|-------------|------------|
    
    E|-4-----4----|-6-----6----|--8-----8----|-6-4-----6--|
    B|-6-----6----|-8-----8----|--9-----9----|-8-6-----8--|
    G|----5-----5-|----5-----5-|-------------|-------5----|
    D|------------|------------|----10----10-|------------|
    A|------------|------------|-------------|------------|
    E|------------|------------|-------------|------------|
    
    E|--8-----8----|-6-4------4-|-3-----3----|-3-----3----|
    B|--9-----9----|-8-6------6-|-2--1--2--1-|-2--1--2--1-|
    G|-----7-----7-|-------7----|------------|------------|
    D|-------------|------------|------------|------------|
    A|-------------|------------|------------|------------|
    E|-------------|------------|------------|------------|
    
    E|-3-------3-------|-3-------3------|-3-----------3-------|--3-|
    B|-2---1---2---1---|-2---1---2----1-|-2-----1-----2-----1-|--2-|
    G|-----------------|----------------|---------------------|----|
    D|-----------------|----------------|---------------------|----|
    A|-----------------|----------------|---------------------|----|
    E|-----------------|----------------|---------------------|----|…
  • Intro Fig. (7x)
    e|-----------------|-----------------| On the     |-----|
    B|-----------------|-----------------| last rep   |-----|
    G|-----0-----0-----|-----0-----0-----| substitute |---0-|
    D|---0-----0-----0-|---2-----3-----3-|…
  • Intro
    A#5 C5 F5 G5
    A#5 C5 F5 G5
    A#5 C5 F5 G5
    A#5 C5 F5 G5            A#5
    
    Verse 1
    A                E
         there was a time
    F#m                C#m
         when I was so broken-hearted
    D                A         E
         love wasn`t…
  • riff
    
    G--3----3--5--7-7-5-5----7-5-5-3-3---7-5-3-0-0-3-0-3-0-
    
    |--3----2----0----0----------------------------3---|
    |--3----3----0----1----------------------------3---|
    |--0----2----0----0-------------------------4------|
    |--0----0----2----2--------5-0--5-0---3--4--5------|
    |--x---------2----3--------3-0--3-0---3--4--5------|
    |--3---------0------------------------1--2--3------|
    
    Verse/Chorus:
    
    |--3----2----0----0----------|
    |--3----3----0----1----------|
    |--0----2----0----0----------|
    |--0----0----2----2----------|
    |--x---------2----3----------|
    |--3---------0---------------|
    
    Pre-Chorus:
    
    |--1----0----3--------------|
    |--1----1----3--------------|
    |--2----0----0--------------|
    |--3----2----0--------------|
    |-------3----x--------------|
    |------------3--------------|
    
    Bridge:
    
    |----------------------------------|
    |----------------------------------|
    |--3-------5---------3-------------|
    |--3---3---5---5-----3---3---7---7-|
    |--1---3---3---5-----1---3---7---7-|
    |------1-------3---------1---5---5-|
    
    During…
  • Intro: E A
    
    Verse:
    E G#m A Am
    E G#m A Am...
                 C#m
    ...to start again
    B A (B C#m)
    B A
    
    Chorus:
    E G#m A Am (x2)
    
    C#m B F#
    Won't let time...
    A A7 Am
    We'll...
    
    (E A)
    
    (Verse)
    
    (Chorus)
    
    E G#m
    We'll just...
    A Am
    Our…
  • Little fill at the drum intro, with effect on the guitar:
    
    e---2---3---0---0--222...
    B-----3---3--------------
    G------------------------
    D------------------------
    A------------------------
    E------------------------
    
    INTRO:
    
    Played…
  • Chords used:
        G  - F  - Cadd - D - Em - A - C -C7
    E|--3----3-----3-----0----0---0---0--0--|
    B|--3----3-----3-----3----0---2---1--1--|
    G|--0----0-----0-----0----0---2---0--3--|
    D|--0----0-----2-----4----2---2---2--2--|
    A|--2----0-----3-----5----2---0---3--3--|
    E|--3----1-----0----------0-------------|
    
    Verse:…
  • guitar 1
    E|---|
    B|---|
    G|---|
    D|---|
    A|-3-| ПОВТОРИТЬ X РАЗ
    E|---|
    
    guitar 2
    E|------------------------------------------------|
    B|-6-----4----------------------------------------|
    G|-5-----3-----5-5-5-5-5-5-5-5----5-5-5-5-5-5-5-5-|
    D|-3-----1-----5-5-5-5-5-5-5-5----5-5-5-5-5-5-5-5-|
    A|-------------3-3-3-3-3-3-3-3----3-3-3-3-3-3-3-3-|
    E|------------------------------------------------|
    
    E|------------------------------------------------|
    B|-6-----9-----8-8-8-8-8-8-8-8----8-8-8-8-8-8-8-8-|
    G|-5-----8-----7-7-7-7-7-7-7-7----7-7-7-7-7-7-7-7-|
    D|-3-----6-----5-5-5-5-5-5-5-5----5-5-5-5-5-5-5-5-|
    A|------------------------------------------------|
    E|------------------------------------------------|
    
    piano:
    E|-------------------------------------------------------------|
    B|-------------------------------------------------------------|
    G|-------------------------------------------------------------|
    D|-------------------------------------------------------------|
    A|-3-3----1-1-----3-3-----1-1-----3-3-----1-1-----3-3------1-1-|
    E|-------------------------------------------------------------|…
  • (Intro)
    G:------14-19-16-12------------------------------------------------|
    D:------------------13/14------------------------------------------|
    A:12-12-------------------12---3-----------------------------------|
    E:---------------------------5---1-4-3-2-2-1-----------------------|
    
    G:-----------------------------------------------------------------|
    D:-----------------------------------------------------------------|
    A:--------------3-3-3-3--------------------------------------------|
    E:5-5-5-5-5-5-5---------1-1-1-1-4-4-4-4-3-3-3-3-2-2-2-2-1----------|
    
    (Chorus)
    G:-----------------------------------------------------------------|
    D:-----------------------------------------------------------------|
    A:3-3/7-7-8-8-7-7-----------------3-3/7-7-8-8-7-7------------------|
    E:----------------3-3-3-3-3-3-3-3-----------------3-3-3-3/15-15-15-|
    
    G:-----------------------------------------------------------------|
    D:-----------------------------------------------------------------|
    A:---------------0---3-3/15-15-14-14-------------------------------|
    E:13-13-12-12-10---3-----------------------------------------------|
    
    G:-----------------------------------------------------------------|
    D:-----------------------------------------------------------------|
    A:--------5-5-5-5---------3-3-3-2---------5-5-5-5---------3-3-3-3--|
    E:5-5-5-5---------1-1-1-1---------5-5-5-5---------1-1-1-1----------|
    
    G:-----------------------------------------------------------------|
    D:-----------------------------------------------------------------|
    A:------------2-3-3-3-3-----------------------------2/3-0----------|
    E:5-5-5-5-5-5-----------1-1-1-1-4-4-4-4-3-3-3-3-2-2-------2-1------|
    
    G:-------------------------------------------------------------9-10|
    D:-----------------------------------------------------------------|
    A:3-3/7-7-8-8-7-7---------------5-3-3/7-7-8-8-7-7-----------10-----|
    E:----------------3-3-3-3-3-3-3-------------------3-3-3-5-6--------|
    
    (Bridge)
    G:-----------------------------------------------------------------|
    D:-----------------------------------------------------------------|
    A:8-8-7-7-5-0-----3---3-5-5-7-7-8----------------------------------|
    E:------------3-3--------------------------------------------------|
    
    (During…
  • G|---|----------------------|---------------------|
    D|---|----------------------|---------------------|
    A|-0-|-3--3-13----------1---|-3----13--------1--1-|
    E|---|-----------01-13-3--3-|---------01--3----3--|
    
    G|----------------------|---------------------|
    D|----------------------|---------------------|
    A|-3----13----------1---|-3----13--------1--1-|
    E|-----------01--3-3--3-|---------01--3----3--|
    
    G|----------------------|---------------------|
    D|----------------------|---------------------|
    A|-3----13----------1---|-3--3-13--------1--1-|
    E|-----------01--3-3--3-|----------1--3----3--|
    
    G|----------------------|-----------------|
    D|----------------------|-----------------|
    A|-3----13----------1---|-3----13-------0-|
    E|-----------01-13-3--3-|----------0-3----|
    
    G|---------------|------|------|---------------|
    D|----2-----2----|--0/--|--0/--|----2-----2----|
    A|-012---012-----|--/0--|--/0--|-012---012---0-|
    E|-------------0-|------|------|---------------|
    
    G|----------------------|---------------------|
    D|----------------------|---------------------|
    A|-3----13----------1---|-3----13--------1--1-|
    E|-----------01-13-3--3-|---------01--3----3--|
    
    G|----------------------|---------------------|
    D|----------------------|---------------------|
    A|-3--3-13----------1---|-3--3-13--------1--1-|
    E|-----------01--3-3--3-|---------01--3----3--|
    
    G|----------------------|---------------------|
    D|----------------------|---------------------|
    A|-3--3-13----------1---|-3----13--------1--1-|
    E|-----------01--3-3--3-|---------01-13-3--3--|
    
    G|----------------------|---------------------|
    D|----------------------|---------------------|
    A|-3--3-13----------1---|-3--3-13--------1--1-|
    E|-----------01--3-3--3-|---------01--3----3--|
    
    G|----------------------------3------|------|
    D|----------------1233333-3335-531---|--0/--|
    A|-3---3---3--3-33----------------31-|--/0--|
    E|-----------------------------------|------|
    
    G|----------------------|-----------------------|
    D|----------------------|------------------1314-|
    A|-3--3-13----------1---|-3-3-3/-13--131315-----|
    E|-----------01--3----3-|-----------------------|
    
    G|----------------------|-----------------|
    D|----------------------|-----------------|
    A|-3--3-13----------1---|-3--3-13-------0-|
    E|-----------01-13-3--3-|----------0-3----|
    
    G|---------------|------|------|---------------|
    D|----2-----2----|--0/--|--0/--|----2-----2----|
    A|-012---012-----|--/0--|--/0--|-012---012---0-|
    E|-------------0-|------|------|---------------|
    
    G|----------------------|---------------------|
    D|----------------------|---------------------|
    A|-3--3-13----------1---|-3--3-13--------1--1-|
    E|-----------01-13-3--3-|---------01--3----3--|
    
    G|----------------------|---------------------|
    D|----------------------|---------------------|
    A|-3----13----------1---|-3--3-13--------1--1-|
    E|-----------01--3-3--3-|---------01--3----3--|
    
    G|----------------------|---------------------|
    D|----------------------|---------------------|
    A|-3----13----------1---|-3----13--------1--1-|
    E|-----------01--3-3--3-|----------1--3----3--|
    
    G|----------------------|-----------------|
    D|----------------------|-----------------|
    A|-3----13----------1---|-3--3-13-3-----0-|
    E|-----------01-13-3--3-|----------0-03---|
    
    G|---------------|------|------|---------------|
    D|----2-----2----|--0/--|--0/--|----2-----2----|
    A|-012---012-----|--/0--|--/0--|-012---012---0-|
    E|-------------0-|------|------|---------------|
    
    G|----------------------|---------------------|
    D|----------------------|---------------------|
    A|-3----13----------1---|-3----13--------1--1-|
    E|-----------01-13-3--3-|---------01--3----3--|
    
    G|----------------------|---------------------|
    D|----------------------|---------------------|
    A|-3----13----------1---|-3----13--------1--1-|
    E|-----------01--3-3--3-|---------01--3----3--|
    
    G|----------------------|---------------------|
    D|----------------------|---------------------|
    A|-3----13----------1---|-3----13--------1--1-|
    E|-----------01--3-3--3-|----------1--3----3--|
    
    G|----------------------|---------------------|
    D|----------------------|---------------------|
    A|-3----13----------1---|-3----13--------1--1-|
    E|-----------01-13-3--3-|---------01--3----3--|
    
    G|----------------------------3------|------|
    D|----------------1233333-3335-531---|--0/--|
    A|-3---3---3--3-33----------------31-|--/0--|
    E|-----------------------------------|------|
    
    G|----------------------------3------|
    D|----------------1233333-3335-531---|
    A|-3---3---3--3-33----------------31-|
    E|-----------------------------------|
    
    G|----------------------------------------12-|
    D|-----------------10------------------123---|
    A|-3---3---3---3/10--109---------------------|
    E|-------------------------1---1---1---------|
    
    G|----------------------|---------------89-|
    D|----------------------|-------10--8910---|
    A|-3--3-13----------1---|-3--3/---10-------|
    E|-----------01-13-3--3-|------------------|
    
    G|----------------------|-----------------|
    D|----------------------|-----------------|
    A|-3--3-13----------1---|-3--3-13-------0-|
    E|-----------01-13-3--3-|----------0-3----|
    
    G|---------------|-------------------|
    D|----2-----2----|----2-----2--------|
    A|-------012-----|-------012---0-(0)-|
    E|-034---------0-|-034---------------|...…
  • E-F#-A        E-F#-D         E-F#-A        E-F#-D       E-F#-
    e|-------------------------------------------------------------|
    B|-------------------------------------------------------------|
    G|-----2-------------7--------------2-------------7------------|
    D|-----2-------------7--------------2-------------7------------|
    A|-----0-------------5--------------0-------------5------------|
    E|-0-2-----------0-2------------0-2-----------0-2---------0-2--|
    
    A…
  • W          W          W          S S E Q  E S S S S E
    |----------|----------|----------|-----------------------|
    |----------|----------|----------|-----------------------|
    |----------|----------|----------|------------2-0-2-0-0--|
    |----------|----------|----------|-----------------------|
    |----------|----------|----------|-0---0-3--0------------|
    |----------|----------|----------|-----------------------|…
  • D A Bm
    I could stay awake just to hear you breathing
    G D
    watch your smile while you are sleeping
    Em
    while you're far away in dreaming.
    D A Bm
    I could spend my life in this sweet surrender
    G D Em
    I could stay lost in this…
  • INTRO:
    Eb5  Bb5 Ab5  Bb5 Eb5  Bb5 Ab5
    Bb5 Eb5  Bb5 Ab5  Bb5 C5  Bb5 Ab5 (Absus4 Ab)
      (*Look at the timing note at the end if this looks confusing.)
    
    VERSE 1:
          Eb                                              Ab
    Absus4…
  • INTRO
    
       D5
    e|----------0h2p0-------0---------|------0h2p0-------0---------|
    B|-----3----------3-------3-----3-|----3-------3-------3-----3-|
    G|--------------------------0h2---|----------------------0h2---|
    d|-0------------------------------|-0--------------------------|
    A|--------------------------------|----------------------------|
    D|--------------------------------|----------------------------|
    
    [repeat]
    
    VERSE…
  • Fig. 1
    G|-------------------------------------------------------------|
    D|-------------------------------------------------------------|
    A|-------------------4--5-5-5-5-5-5-5-5----------------------5-|
    E|-2-2-2-2-2-2-2-2-2----------------------2--3-3-3-3-3-3-3-3---|
    
    G|------------------|
    D|------------------|
    A|--4-4-4-4-4-4-4-4-|
    E|------------------|
    
    G|-------------------------------------------------------------|
    D|-3-3-3-3-3-3-3-3---------------------------------------------|
    A|---------------------------------4--5-5-5-5-5-5-5-5----------|
    E|-----------------2-2-2-2-2-2-2-2--------------------2--3-3-3-|
    
    G|-----------|
    D|-----------|
    A|-----------|
    E|-3-3-3-3-3-|
    
    G|-------------------------------------------------------------|
    D|-------------------------------------------------------------|
    A|-------------------------------------------------------------|
    E|-5-5-5-5-5-5-5-5-5-7-7-7-7-7-7-7-7-7-7-7-7-7-7-7-7-7-7-9-9-9-|
    
    Fig.…
  • C5 B5  A(2x)
    
       rhythm figure 1(guitar 1)-
    e------------------------------------------------------------
    b------------------------------------------------------------
    g-----4p2-----0-2------4p2-----0-2------5-4-----0-5--5p4---
    d-----4p2-----0-2------4p2-----0-2------5-4-----0-5--5p4---
    a--5-------5-------5--------5-------5--------5------------5-
    E------------------------------------------------------------
    
    e---------------------
    b----------0--0-------
    g--4p2-----0--0-------
    d--4p2----------------
    a-------5-------------
    E---------------------
    
    Repeat…
  • E|--------------------|----------------------|
    B|--------------------|----------------------|
    G|--------------------|----------------------|
    D|-------2--------2---|-------2--------2---2-|
    A|-0-1-2----0-1-2-----|-0-1-2----0-1-2-------|
    E|------------------0-|------------------3---|
    
    E|--------------------|----------------------|
    B|--------------------|----------------------|
    G|--------------------|--------------------2-|
    D|-------2--------2---|-------2--------2---2-|
    A|-0-1-2----0-1-2-----|-0-1-2----0-1-2-----0-|
    E|------------------0-|----------------------|…
  • D7 A7 E7 Bm7 A
    E----2-----0-------0------2-----0------|
    B----1-----2-------3------3-----2------|
    G----2-----0-------1------2-----2------|
    D----0-----2-------2------4-----2------|
    A----------0-------2------2-----0------|
    E------------------0-------------------|
    
    D7
    Got…
  • Intro: F5 and G5
    
    riff 1-                                           turns into:
    E|---------------------------------------------|---------------|
    B|-------3----------3----------3-----------3---|--------3------|
    G|----2----------2----------0-----------2------|-----0---------|
    D|-0--------------------------------0----------|---------------|
    A|-----------1----------3----------------------|--3------------|
    E|---------------------------------------------|------------3--|
    
    F5…
  • Toys in the Attic
    
    G|-----------------|---------------|---------------|---------|
    D|-----------------|---------------|---------------|---------|
    A|---7-5---5-------|--7-5---5------|--7-5---5------|--5------|
    E|-0-----7---7-3-0-|------7---7-3-0|------7---7-3-0|5----3-5-|…
  • Intro
    E|---0--0-----0--0--|-----0--0-----------||------------------|
    B|---0--0-----0--0--|-----0--0-----8--8--||------------------|
    G|---4--4-----4--4--|-----4--4-----7--7--||*-----------------|
    D|---2--2-----2--2--|-----2--2-----6--6--||*-------5---------|
    A|---2--2-----2--2--|-----2--2-----7--7--||---5h7-----5h7----|
    E|---0--0-----0--0--|-----0--0-----------||------------------|…
  • Intro: Play Twice
    e|--------------------------|
    B|-15~~~-----------12-------|
    G|-14b(16r15.5b14)---12---9-|
    D|---------------------12^9-|
    A|--------------------------|
    E|--------------------------|
    
       Riff 1
    e|----------------|-------|------------------|-----------------|
    B|----------------|-------|------------------|-----------------|
    G|----------------|-Play--|------------------|-----------------|
    D|-5-5-5-5-5-5-5-5^-Twice-^-7-7-7-7-7-7-7--7-|-5--5-5-5-5--5-5-|
    A|-5-5-5-5-5-5-5-5|-------|-7-7-7-7-7-7-7--7-|-5--5-5-5-5--5-5-|
    E|-3-0-0-3-3-0-3-0|-------|-5-0-0-5-5-0-5--0-|-3--0-0-3-3--0-3-|
    
    e|----------------------------|-------------|
    B|----------------------------|-------------|
    G|----------------------------|-Repeat-from-|
    D|-7-7--7--7-9--99-97---5--4--|----Start----|
    A|-7-7--7--7-9--99-97---5--4--|-------------|
    E|-5-5--5--5^0--77-05---3--2--|-------------|…
  • intro(acoustic)-
    E|---------------------------------------------------|
    B|-------------------0-------------------------------|
    G|-------------------0--------------------------5----|
    D|---0------------0--0------0---------------3b-----3r|
    A|------3p0----------------------------3p0-----------|
    E|-----------3p0---------------0--3p0----------------|
    
    E|---------------------------------------------------|
    B|---------------------------------------------------|
    G|---------------------------------------------------|
    D|---0-----3b-r--0-------0-----------------0---------|
    A|------0-----------3br----------5p3p0--0------------|
    E|--------------------------------------------3br--0-|
    
    E|-------------------------------------|
    B|-----------------------------------0-|
    G|-----------------------------------0-|
    D|-----------3b-----0-------------0--0-|
    A|------3p0------------3p0-------------|
    E|-3p0----------------------3p0--------|
    
    E|--------------------------------------------------|
    B|--------------------------------------------------|
    G|--------------------------------------------------|
    D|-0-------------------5---------0-----3b-r--3b-r-0-|
    A|------------3p0--3b-----3r--------0---------------|
    E|----0--3p0----------------------------------------|…
  • Gm                               C
    Up in smoke you've lost another lover
            Gm                          C
    As you take a hit of your last cigarette
       Ab        Bb
    Strung out, burnt out, yeah
            Cm…
  • INTRO
    1|----|----|----|----|----|----|o------------------------------|
    2|----|----|----|----|----|----|-------------------------------|
    3|5-55|5-55|----|----|7-77|7-77|---------%-----2--------%-----2|
    4|----|----|3-33|3-33|----|----|o-2-2-4-5-2-4-5--2-2-4-5-2-4-5-|
    
    play…
  • G
    Oh---
    G
    Oh---
    {verse1}
    G                                 C
    I love to look into your big brown eyes.
                               G
    They talk to me and seem to hypnotize.
                                       C
    They say the…
  • Intro:
    
    E|-----------| Play this 4 times during intro
    B|-----------|
    G|-----------|
    D|-5-5s-3s-5-|
    A|-5-5s-3s-5-|
    E|-3-3s-1s-3-|
    
    Chorus: play above riff throughout the Chorus
    
    Talk is cheap, shut up and dance
    Don`t get…
  • Cm                    Bb
     Seems like the other day
    Ab              Gm  
     My baby went away
    Fm                           G
       She went away, across the sea
    Cm                        Bb
       It's been two years or so
    Ab…
  • INTRO C/DISTORCION (GTR I & II)
    
    E|--------------15----------|(X6)
    B|--------------15----------|
    G|-------9-12------12-9-----|
    D|-------9-12------12-9-----|
    A|-7------------------------|
    E|-0------------------------|
    
    E|----0--------------------------------3-----------------------|
    B|----5---------------------3-----5----------5----------3------|
    G|-----------------4-----------------------------------------3-|
    D|-------------------------------------------------------------|
    A|-------------------------------------------------------------|
    E|-------------------------------------------------------------|
    
    E|----------3-------------0-----0-----------------------------|
    B|---3---5-----5----3-----5-----3-----------------------------|
    G|4--------------------------------4----2--0-----2------------|
    D|--------------------------------------------2---------2--2--|
    A|------------------------------------------------------------|
    E|------------------------------------------------------------|
    
    E|---------------------------------------------------------------|
    B|---------------------------------------------------------------|
    G|---------------------------------------------------------------|
    D|---2…
  • Intro :  (Rhy. Fig.1)
       E7                           Em7          E5  4X
    E|----------------------------|-------------------|
    B|----------------------------|-------------------|
    G|----------------------------|--------------9-9--|
    D|--------------0--0------0---|--------------9-9--|
    A|-----------2---------2-----2|--------------7-7--|
    E|-0--0--4--------------------|--3--0-----0-------|
    
    Verse…
  • A                          F#m
    You know you drive me up a wall the way
                              D
    you make good of all the nasty
                                      Dm
    tricks you pull. Seems like we`re makin`
    up more than…
  • Intro: (2x)
    E|-5-----5----|-7-----7----|-8-----8----|-7-----7----|
    B|-6-----6----|-6-----6----|-6-----6----|-6-----6----|
    G|----5-----5-|----5-----5-|----5-----5-|----5-----5-|
    D|------------|------------|------------|------------|
    A|------------|------------|------------|------------|
    E|------------|------------|------------|------------|
    
    Riff…
  • Intro:
    
     e||----------------------------|----------------------------|
     H||----------------------------|----------------------------|
     G||-----9--9-7---9--11-9-------|-----9--9-7---9--11-9-------|
     D||-----9--9-7---9--11-9-------|-----9--9-7---9--11-9-------|…
  • INTRO
    E-------------------------------------
    B------12b14------12b14---------------
    G-------------------------------------
    D--11^--------11^--------11^----------
    A----------------------------7b9r7----
    E-------------------------------------
    
    E-------------------------------------
    B------12b14------12b14---------------
    G-------------------------------------
    D--11^--------11^--------11^----------
    A----------------------------7--------
    E-------------------------------------
    
    
    Riff…
  • A
    Hot wax drippin'
    Honey what do you say
    I got a brand new record
    That I gotta play
    She said not now boy
    But I did anyway
    D G
    And I'm ready, so ready
    
    A
    Lip smackin' paddy wackin'
    Walkin' the street
    I got a rag top chevy
    Now…
  • (intro -- organ/hi-hat A-D-A-D)
    
    
    
    (verse)
    
    A D
    
    Life is rich, but it's way too short
    
    
    
    Bm D
    
    You make a lot of money, but you just want more
    
    
    
    A D
    
    I don't need the pain, right here in my heart
    
    
    
    Bm D
    
    But I hate every…
  • A
      I met a babe in a backseat drive-in
    
    Back in the saddle she'd sit
    
    Pulled on the reins just to keep me risin'
    
    She loved to chomp at the bit
    
    Daddy do it, oh, just do it
    
    Daddy do it, please let me see
    
    Do it, please…
  • Intro: C Am C Am (when Tyler sings something unindentifiable)
    
             C              Am
    There`s a candle burning in this world tonite
       G          F                G
    for another child who vanished out of sight…
  • main riff-
    E|----------------------------------------|
    B|----5-----5-----4-------4/5-----5-----4-|
    G|-0-----0-----0-------0-------0-----0----|
    D|----------------------------------------|
    A|----------------------------------------|
    E|----------------------------------------|
    
    Repeat…
  • E   H.           E     E   H.           E     E   H.           E   
    E||----------------------|----------------------|----------------------|
    B||----------------------|----------------------|----------------------|
    G||----------------------|----------------------|----------------------|
    D||----------------------|----------------------|----------------------|
    A||--2S--4---------------|--4S--2---------------|--2S--4---------------|
    E||--2S--4---------------|--4S--2---------------|--2S--4---------------|…
  • rhy.fig.1(light palm mute)-
       D/E   E7
    E|-2-------------0--------------------------2-------|
    B|-3--0--3-------3------------3--0--3-------3-------|
    G|-2--0--1-------1------------1--0--2-------2-------|
    D|-2--0--2--------------------2--0--2-------2-------|
    A|----0--2---2-------4-5------2--0--------------4-5-|
    E|-------0---0--------------------------0-----------|
    
    I`m…
  • B
      Kickin' down the road
    
    Feelin' mighty slowed
                       E
    With the likes of you
    B
      Gettin' mighty spaced
                
    Never had a taste
                          E
    Of what you're goin' through
    B
      I can't bitch
    
    Went…
  • To play this correctly, you need to tune your bass down one half step
    (Gb, Db, Ab, Eb).
    
    
    Part 1
    Intro:
    Gb|--------------|--------------|--------------|--------------|
    Db|-7-5----------|--------------|-7-5----------|--------------|
    Ab|-----7---3-4--|-5------------|-----7---5-3--|--------------|
    Eb|-------5------|--------------|-------5------|-5------------|
    
    Gb|--------------|--------------|--------------|--------------|
    Db|-7-5----------|--------------|-7-5----------|--------------|
    Ab|-----7---3-4--|-5------------|-----7---5-3--|--------------|
    Eb|-------5------|--------------|-------5------|-5-3----------|
    
    Gb|----------------|…
  • intro is G and A over and over eneding with C every cycle
    like G A G A G A C G A G A G A G
    
    A
    Cyberotic head explode
    A
    Information overload
    F D A
    And I just can't take anymore
    F D
    And I'm gonna break
    
    (Something's gotta…
  • intro/verse 1(slight palm mute)-
    E|-----------------------------------------------------|
    B|----------------------------5--x-x-------------------|
    G|----------------------------5--x-x-------------------|
    D|--5h7--7--7--7--5--7--5--7-----x-x--5h6h7--7--7--7--5|
    A|-------------------------------x-x-------------------|
    E|-----------------------------------------------------|
    
    E|-----------------------------------------------------|
    B|--------------------------------------------5--7--7b-|
    G|-------------x------------------------------5--7--7b-|
    D|-7--5--7-----x--5h6h7--7--7--7--5--7--5--7-----------|
    A|----------6--x---------------------------------------|
    E|-----------------------------------------------------|
    
    E|-----------------------------------------------------|
    B|-7r--5---------------------------------5--7b--7--7r--|
    G|-7r--5---------------------------5--7----------------|
    D|--------7--7--5h6h7--7--7--7--7----------------------|
    A|-----------------------------------------------------|
    E|-----------------------------------------------------|
    
    E|----------------------------|
    B|--5-------------------------|
    G|-----7--7--5h6h7--7--7--7---|
    D|----------------------------|
    A|----------------------------|
    E|----------------------------|
    
    Thanks…
  • INTRO: C F C ; C F C ; G C G C F C ; C F C
    
    VERSE:
    G C
    If it's love that you're running from
    G
    There is no hiding place
    C
    (You can't run, you can't hide, you can't run)
    G C
    Just your problems no one elses problems
    G
    You…
  • Intro(heavy distortion)-
    E|------------------------------------2-|
    B|----------------------2-------------2-|
    G|-9--9---11--9--7---7-2-----3--4----4--|
    D|-9--9---11--9--7---7-2-----3--4-------|
    A|-7--7----9--7--5---5-----0-1--2-------|
    E|--------------------------------------|
    
    Rhythm…
  • Intro:
    Amaj7 @A Amaj7 @A Amaj7 @A Dmaj7 E
    ----------------------------------------------------------|----------------
    ---------------------------------------------2-2-2-0-0-0--|----------------
    -1-1-1-1-1----1-1h2p1---1-----1-1h2p1---1-----------------|----------------
    -----------4----------4---4-----------4---4---------------|----------------
    ----------------------------------------------------------|----------------
    ----------------------------------------------------------|----------------
    repeat…
  • Figure 1	
      Intro:
    Guitar 1
    1(----------------------------------------) 
    2(----------------------------------------)
    3(----------------------------------------)
    4(--4--0--2-----0-------------------------)
    5(-----------2-----2--1--0-----0-----2----)
    6(--------------------------3-----3-----0-)…
  • intro-
     (1/2 step)
    E|---------5-----------------------5---------------|
    B|---------5----------4b4-4r---2---5---------4b4-4r|
    G|---------2----------4b4-4r---2---2---------4b4-4r|
    D|---------2----------4b4-4r---2---2---------4b4-4r|
    A|-3b-p0-------3b-p0-----------0-------3b-p0-------|
    E|-------------------------------------------------|
    
    E|-----5---------------------|
    B|-2---5-----------4b4-4r--5-|
    G|-2---2-----------4b4-4r--5-|
    D|-2---2-----------4b4-4r--5-|
    A|-0-------3b-p0-------------|
    E|---------------------------|
    
    The…
  • EADGBE
    
    A5	577xxx
    E5	022xxx
    D5	x577xx
    G5	355xxx
    E	022100
    
    
    FILL
    ----
         		   * let ring
    
    E-----------------|---5*--------------|
    B-----------------|-----5*--8*--------|
    G-----------------|-------------------|
    D-----------------|-------7*----------|
    A--0-2-3-4-3-2-0--|-------------------|
    E-----------------|-------------------|
    
    
    E5						Fill
    Checkmate…
  • intro(guitar 1)-
    E|----------------------------------------------|
    B|-----------7--7-----7---10--10--10------10----|
    G|--------7--7--7--7--7---10--10--10--10--10----|
    D|-----5--7--7--7--7--7---10--10--10--10--10--8-|
    A|--0--3--5-----5--5--5--------8---8---8---8--8-|
    E|--------------------------------------------6-|
    
    After…
  • intro/main riff-
    E|-----------------------------------------|
    B|-----------------------------------------|
    G|---7---7----79-9-9-9-4--7----------------|
    D|---7---7----79-9-9-9-4--7----------------|
    A|---5---5----57-7-7-7-2--5---0---0-1-2----|
    E|-0---0---0---------------------3-------3-|
    
    E|----------------------------------------------|
    B|----------------------------------------------|
    G|---7---7---7-9-9-9-9--------------------------|
    D|---7---7---7-9-9-9-9--------------------------|
    A|---5---5---5-7-7-7-7-7-7-7-7-7-7-7--5-5-5-5---|
    E|-0-------0-------------5-5-5-5-5-5-5--3-3-3-3-|
    
    E|-----------|
    B|-----------|
    G|-----------|
    D|---------2-|
    A|-4-4-4-4-2-|
    E|-2-2-2-2-0-|
    
    Repeat…
  • intro-
    rhythm figure 1(guitar 1 acoustic)
    E|--------0---------0------0-------0-------0-|
    B|-----2---------2------------4p0------------|
    G|--4---------4---------4--------------------|
    D|-------------------------------------------|
    A|-------------------------------------------|
    E|-------------------------------------------|
    guitar…
  • E9
    Goin' downtown, goin' down, goin' down
    
    'Neath the city, eatin' ground round
    
    Underground is pretty gritty
    C7                                B7
    I turned the screw she held the light
    C7            D7       D#7
    That's when…
  • -Intro
    
     Starts with song drums
    
    e|-------------------------------|
    b|-------------------------------|
    g|--------------4--------------7-|
    d|----4-7--4----4----4-7--4----7-|
    a|-5---------5-----5--------5----|
    e|-------------------------------|
    
    e|-------------------------------|
    b|-------------------------------|
    g|--------------9----9--9--7-----|
    d|----4-7--4----9----9--9----9-9-|
    a|-5---------5-------------------|
    e|-------------------------------|
    
    -…
  • F#m       B          D           A
    I SOLD MY SOUL FOR A ONE NIGHT STAND
    F#m        B           D     A
    I FOLLOWED ALICE INTO WONDERLAND
    F#m        B             D                A
    I ATE THE MUSHROOM AND I DANCED WITH THE…
  • Intro-
    
    rhythm:
    A - B A - B A - B
    
    lead:
    E----------------------------7-(7)--------7-------10p9p7------10b---r-7-|
    B------7-9p7-9-----7---------------10b--r----------------10p7-----------|
    G------7-9p7-9b--r-7----------------------------------------------------|
    D--------------------9--------------------------------------------------|
    A-----------------------------------------------------------------------|
    E-----------------------------------------------------------------------|
    
    A…
  • Main riff:
     
        E---------------------------------------------------------|
        B---------------------------------------------------------|
        G---------------------------------------------------------|
        D-----------3p0---0---3p0---0-----0-----------------------|…
  • A             D      A
    S w e e t   E m o -  t i o n
    
      Verse
    E|-----------------|-----------------|
    B|-3---------------|-----------------|
    G|-2---2-----2-----|---------2-------|
    D|-0---2-----2-----|---------2-------|
    A|-----0-----0-----|-3p0-----0-------|
    E|-----------------|-----3------(3)--|
    talk…
  • Intro: D - E - D - E
    
    C#m      F#      A       B        E
    Now it`s time to say goodnight to you
    C#m      F#      A       B        E
    Now it`s time to bid you sweet adieu
        A             Ab              C#m
    And maybe drink…
  • E|-2-2-2-2--------|-----------------|-2-2-2-2--------|
    B|-3-3-3-3--------|---2-2-0-2-2-0-2-|-3-3-3-3--------|
    G|-2-2-2-2--------|---2-2-0-2-2-0-2-|-2-2-2-2--------|
    D|-0-0-0-0--------|---2-2-0-2-2-0-2-|-0-0-0-0--------|
    A|----------------|---0-0-0-0-0-0-0-|----------------|
    E|----------0-2-3-|-4---------------|----------0-2-3-|
    
    E|-----------|
    B|---2-2-0-2-|
    G|---2-2-0-2-|
    D|---2-2-0-2-|
    A|---0-0-0-0-|
    E|-4---------|…
  • +-- Fig. 1
    N.C.(Esus4)        (E)                         (B)
    e|-----------------|-----------------|----0--0-|-------------|
    B|-----------------|-----------------|----0--0-|-------------|
    G|-----------4-----|-----------4-----|---------|-------------|
    D|-----2---2---2---|-----2---2---2---|---------|-4-4-6---4-6-|
    A|---2-------------|---2-------------|---------|-2-2-2---2-2-|
    E|-5-----5-------5-|-4-----4--------4|-0-------|-------------|
    
    Play…
  • INTRO
    E|----------------------------------------|
    B|---------------------------------5------|
    G|---------------------------555577-7-----|
    D|5555-5555-77777777-88888888-------------|
    
    MAIN RIFF
    E|---------------|
    B|---------------|
    G|----7-----775⁄%|
    D|3-0---000------|
    
    INTERLUDE
    E|o-0-9-5-4-5-6-7-------------------o|
    B|-----------------------------------|
    G|-------------------5------7-775----|
    D|o--------------75-7-7-3-0---------o|…
  • F5           G5        Ab5       Bb5
    Dum, dum Dum Honey what have you done?
    Eb5                    F5
    Dum, Dum, dum It`s the sound of my gun
    F5           G5        Ab5      Bb5
    Dum dum dum honey what have you done
    Eb5…
  • intro-
       A     D     A7    D
    E|-0-----2-----0-----2-|
    B|-2-----3-----1-----3-|
    G|-2-----2-----0-----2-|
    D|-2-----0-----2-----0-|
    A|-0-----------0-------|
    E|---------------------|
    
    Repeat that a couple of times and then…
  • intro(w/volume pedal or r.hand pinky)-
    o
    E--------------7b---(7)-r--------------------------------------------|
    B---9----------------------7b-r---------9b-----------9-11-11b-r~~~~~-|
    G---9-----7----------------7b-r-7-7⁄11--------(9)⁄11-----------------|
    D---9-----7----------------------------------------------------------|
    A------8-------------------------------------------------------------|
    E--------------------------------------------------------------------|
    
    
    tune…
  • Intro:
    
       Em   D  B5  A  B5 (x2, then...)  Em
    
    (little thing played at the A chord)
    e|------------|
    B|------------|
    G|---2--------|
    D|-----2p0----|
    A|-0--------2-|
    E|------------|
    
    G            Bm      Em
     BEHIND THE WALLS…
  • Intro:
    e---5---5---5---5-----------------------------------------------
    B---5---5---5---5-----------------------------------------------
    G------------------etc...---------------------------------------
    D---------0-----------------------------------------------------
    A-0---0-------0-------------------------------------------------
    E---------------------------------------------------------------
    
    e-----5-------5------5------5-----------------------------------
    B-----5-------5------5------5------5-------5------5------5------
    G----------------------------------6-------6------6------6------
    D----------------------------------6-------6------6------6------
    A--0-------0-------0-----0------4-------4------4------4---------
    E---------------------------------------------------------------
    Finders…
  • This is the main riff during the chorus:
    
    e|---------------------------------
    B|---------------------------------
    G|-------------------------9-7—9---
    D|------------------3-4----9—7-9---
    A|---7-------3-4-5---------7—5-7---
    E|-----3-4-5-----------------------…
  • ----------------------------------3---3-----------3---3----------4---4-------- 
    -----6-5-6---------6-5-6--------3---5---3-------3---5---3------3---5---3----3- 
    ---7-------7-----7-------7-----------------------------------4-----------4-4--…
  • E--------------------------------|
    B--------------------------------|
    G--------------------------------|
    D--------------------------------|
    A--------------------------------|
    E--2⁄5~~~~~~~~~~~~~~~~~~~~~~~~---|
    followed by…
  • intro riff-
    
    guitar 1(distortion)
    E------------------------------------|
    B------------------------------------|
    G------------------------------------|
    D--5--3----------3--3-----2--2-------|
    A--------5-5-------------------------|
    E-------------3--------3---------3---|…
  • G                                      D
    There goes my old girlfriend, there`s another diamond ring.
             Em                        D
    And, uh, all those late night promises
       C
    I guess they don`t mean a thing.
       G…
  • Intro:
    
    e|---------------------------------------------------|
    B|---------------------------------------------------|
    G|--b3---4---3---4-----------------------------------|
    D|---------------------------------------------------|
    A|-------------------2---3---4---5---5---5---5---5---|
    E|---------------------------------------------------|
    
    Main…
  • Intro-E,B
    
              E           B
    It's the dawn of the day
               E               B
    And I'm crashed and I'm smashed
      E       B
    As it is I'm feelin'
             E          B
    Like my chips are cashed
       A       E
    All of…
  • main riff | |--------P.M.--------| 2x
    E---------------------------|--5----3/2---2----3--3----|
    B---------------------------|----3------3---3--3-------|
    G------------------7-7------|--------------------------|
    D--5/4---4---5-----7-7-(7)--|--------------------------|
    A--3/2-0-2-0-3-x-0-5-5-(5)--|--------------------------|
    E---------------------------|--------------------------|
    
    Bb
    I…
  • 1:
    E|--------------------|-----------------|
    B|---------------5----|-----------------|
    G|--4------2/4/6------|--4------2/4/6---|
    D|--------------------|-----------------|
    A|--------------------|-----------------|
    E|--------------------|-----------------|
    
    2:
    E|-----------|------------|-------------|-------------|
    B|--5b7r-----|--5b7r------|--8b10r------|--8b10r------|
    G|-------5---|-------6----|--------8----|--------9----|
    D|-----------|------------|-------------|-------------|
    A|-----------|------------|-------------|-------------|
    E|-----------|------------|-------------|-------------|
    
    3:
    E|------------------|----------------|------------|-----------|
    B|--3--3-2----1-2---|--3---2--1---2--|--2--2---0--|------0----|
    G|--2--2-2----1-2---|--2---2--1---2--|--2--2---2--|--1h2p1----|
    D|------------------|----------------|------------|-----------|
    A|------------------|----------------|------------|-----------|
    E|------------------|----------------|------------|-----------|…
  • God I love the sweet taste of India Lingers on the tip...
    E--------------------------------------------------------------------4{-----|
    B------------------------------------------------------------------5--v--(5)|
    G---------------------1------2---4---2-1---------------------1-2⁄4----------|
    D-----2b-r-2-2b-r--2---------------------2-----2b-r-2-2b-r-2----------------|
    A---------------------------------------------------------------------------|
    E--0----------------------------------------0-------------------------------|
    
    continue…
  • Intro: Em
    
     Em
    When will the clouds erode away
                               Dm
    When will the good people have their say
    Em
     I  hope you're still around to see the day
    E       F#      G     A 
    Take a while, think about it
    E…
  • rhy.fig.1-
    
    E|--------------------------------------------|
    B|--------------------------------------------|
    G|--------------------------------------------|
    D|--------------------------------------------|
    A|-2--2--4----2--4--2--2---4------------------|
    E|-0--0--0----0--0--0--0---0--2---2--3-3--4-4-|
    This…
  • Intro: Cm Cm6 Fm7 Bb Cm Cm6 Fm7 Bb
    
    Cm     Cm6    Fm7       Bb
    Ah..na, na,   na, na,na,na,na
    Cm     Cm6    Fm7       Bb
    Ah..na, na,   na, na,na,na,ah
    Cm            Abmaj7         Eb   D7
    Hush a bye my  baby soft and new
    G7sus4…
  • B
    Johnny come late on a saturday night
             A
    Singin' how to go
    B
    Backstreet boogie in the house of delight
                A
    Where they steal the show
    B
    Money come sour but the ladies are sweet
            A
    It's a love affair…
  • Riff A
    E|----------------------------|   This is the opening riff.
    B|----------------------------|   It is played during most of
    G|----------------------------|   the song.
    D|----------------------5---5-|
    A|------2-2---3-3--4-4--5---5-|
    E|-3-3------------------3-3-3-|
    
    After…
  • ---------------------------------------------------
    ---------------------------------------------------
    --------------------------------------------------- (4 times)
    -3-3-3-3-3-3-6-6-6-6-6-6-6-7-7-7-7-7-7-7-3-3-3-3-3-
    ---------------------------5-5-5-5-5-5-5-1-1-1-1-1-
    Sitting…
  • E--------------------------------------------------|
    A--------------------------------------------------|
    D--------------------------------------------------|
    G--------------------------------------------------|
    B-----5>7--7--77--7--7BEND…
  • Intro
     G1:
    +-------------------------+
    +-------------------------+
    +--------5--4--3--2-------+
    +-2-2--2-5--4--3--2-------+
    +-2-2--2-3--2--1--0-------+
    +-0-0--0------------------+
    
     G2:  W/BAR      /      
    +-----0-------------------+
    +-----0-------------------+
    +-----0-------------------+
    +-------------------------+
    +-------------------------+
    +-------------------------+
    
    G1…
  • Intro
    E|------------------|-----------------|-----------------|
    B|------------------|-----------------|-----------------|
    G|---9--9--9--9--9--|-----------------|-----------------|
    D|---9--9--9--9--9--|--9--9--9--9--9--|--7--7--7--7--7--|
    A|---7--7--7--7--7--|--9--9--9--9--9--|--7--7--7--7--7--|
    E|------------------|--7--7--7--7--7--|--5--5--5--5--5--|…
  • Intro/verse riff(guitar 1)-
            |----------PM---------|
        E--------------------------------|
        B--------------------------------|
        G-----------------------3--------|
        D-----5----5p3----------3--------|…
  • E|----------------------------------|
    B|----------------------------------|
    G|-----------------------4--2-------|
    D|-------4--2---------4-------------|
    A|----4------------4----------------|
    E|-2------------2-------------------|
    
    That's…
  • MMMMMMMM   MMMMMMMM
    D5/E5E5E5E5E5/D5D5D5D5D5/   X4    M - Palm Mute
                                      / - Slide
    B A B A E   X2
    A E         X4
    
    Riff A
    ---------2---------2---|d
    -----------------------|a
    -0-3-0-3---0-3-0-3-----|e
    
    D
    Riff…
Наверх