Аккорды Aerosmith - Sweet Emotion

Добавлено: @romashka
Дата добавления: 16 Марта 2013г.
Рейтинг:
0.0
Просмотров: 479
A             D      A
S w e e t   E m o -  t i o n

  Verse
E|-----------------|-----------------|
B|-3---------------|-----------------|
G|-2---2-----2-----|---------2-------|
D|-0---2-----2-----|---------2-------|
A|-----0-----0-----|-3p0-----0-------|
E|-----------------|-----3------(3)--|
talk about things and nobody cares.. etc.

  Between verses
E|-----------------|-----------------|
B|-----------------|-----------------|
G|-----------------|-----------------|
D|-----------------|-----------------|
A|-5p3p0-----------|-----------------|
E|-------0-2-2---0-|-3-3---0-4---5---|

  Outro (solo mainly in E dorian)
E|-----------------|-----------------|
B|-----------------|-----------------|
G|---------7-----9-|---9-----2-2-----|
D|-2---2---7-----9-|---9-----2-2-----|
A|-2---2---5-----7-|---7-----0-0-----|
E|-0---0-------0---|-------0-----3-4-|
Музыка - это самый сильный вид магии (Мэнсон)
Мы стремимся к созданию контента, соответствующего всем нормам законодательства и уважающего интеллектуальную собственность. Мы также придаем большое значение тому, чтобы не задеть никого и не оскорбить чьи-либо чувства. Если у вас есть вопросы или претензии по размещенному материалу, пожалуйста, сообщите нам об этом.
Шрифт
-
0
+
Прокрутка
-
0
+
Стоп
Наверх