Аккорды - Медбоги

Добавлено: @romashka
Дата добавления: 04 Сентября 2021г.
Рейтинг:
0.0
Просмотров: 52
Транспонировать - +
Вступление
1|----0-------------0--------|
2|-------0-------------0---2-|
3|-2---------2---------------|
4|-0-------------------------|
5|-0--------------0----------|
6|---------------------------|

Am Em - 4 раза

Соло вступления и проигрышей
1|-------------------------|
2|-------------------------|
3|-2-----2----0--0----4--0-|
4|----2-----2------2-------|
5|-------------------------|
6|-------------------------|

     Am 
В забитых в больницах ночью и днем
 C
Падая с ног на плечах у сестер
    G                          Am
Спасая других, задыхался главврач
       
Время на убыль кричал он в бреду
 C
Доктор герой ушел молодой
 G                        Am
20я смена без сна всю весну

  F                G        Am
Слава врачам докторам и медсестрам
  F             G       Am
Чьею ценою мы снова на веслах
    F       G                Am
Гребем и живем, улыбаясь и плача.
    F           G               Am
Спасибо медбоги, Вам низкий поклон.
      F         G               Am
В словах Гиппократа останется клятва
    F           G                Am
Спасибо медбоги, Вам в колокол звон.
    F           G           Am             
Спасибо медбоги, Вам в колокол...

Проигрыш
Dsus2

   Am
Ряды пополняли студенты вузов
C
Им не хватало практики духа.
 G
Первый опыт - глаза на лоб
   Am
Потом как конвейр и смерти стоп

Страх распылялся в такой суете
   C
Во имя спасения людей на земле
 G
Слава врачам докторам и медсестрам
  Am
Чьею ценою мы снова на веслах

    F       G                Am
Гребем и живем, улыбаясь и плача.
    F           G               Am
Спасибо медбоги, Вам низкий поклон.
      F         G               Am
В словах Гиппократа останется клятва
    F          G                 Am
Спасибо медбоги, Вам в колокол звон.
    F          G            Am
Спасибо медбоги, Вам в колокол...

Проигрыш
Dsus2

  F                G        Am
Слава врачам докторам и медсестрам
  F             G       Am
Чьею ценою мы снова на веслах
   F        G                Am
Живем и гребем, улыбаясь и плача.
    F           G               Am
Спасибо медбоги, Вам низкий поклон.
    F       G                Am
Гребем и живем, улыбаясь и плача.
    F           G                Am
Спасибо медбоги, Вам в колокол звон.

      F         G               Am
В словах Гиппократа останется клятва
    F          G                 Am
Спасибо медбоги, Вам в колокол звон.
    F          G                Am
Спасибо медбоги, Вам низкий поклон.
    F          G                 Am
Спасибо медбоги, Вам в колокол звон.
    Dsus2
Спасибо медбоги...

1|-0-------------0--------|
2|----0-------------0---2-|
3|--------2---------------|
4|------------------------|
5|-------------0----------|
6|------------------------|

1|----0-------------0--------|
2|-------0-------------0---2-|
3|-2---------2---------------|
4|-0-------------------------|
5|-0--------------0----------|
6|---------------------------|

В концовке Dsus2 проводишь с 5-й по 3-ю струны вниз и 
играешь нижние табы.
Наверх