Аккорды «A Perfect Circle»

A Perfect Circle
Группа была основана Билли Хаурделом - гитарным техником, работавшим с Nine Inch Nails, The Smashing Pumpkins, Fishbone, Guns N' Roses и Tool. Мэйнард Джеймс Кинэн (Maynard James Keenan), вокалист Tool, услышав демо-записи Билли, сказал что, если тот создаст группу, то он готов стать их вокалистом. Хаурдел после некоторых сомнений согласился, несмотря на то, что сначала хотел чтобы в группе был женский вокал. Также к ним присоединились басистка и скрипачка Пэз Леншантин (Paz Lenchantin), гитарист… Читать полностью... Группа была основана Билли Хаурделом - гитарным техником, работавшим с Nine Inch Nails, The Smashing Pumpkins, Fishbone, Guns N' Roses и Tool. Мэйнард Джеймс Кинэн (Maynard James Keenan), вокалист Tool, услышав демо-записи Билли, сказал что, если тот создаст группу, то он готов стать их вокалистом. Хаурдел после некоторых сомнений согласился, несмотря на то, что сначала хотел чтобы в группе был женский вокал. Также к ним присоединились басистка и скрипачка Пэз Леншантин (Paz Lenchantin), гитарист Трой ван Льюен (Troy Van Leeuwen), прежде игравший в Failure. и барабанщик Тим Александр (Tim Alexander) из Primus. После серии репетиций и выступлений на разогреве у других команд, APC начинают записывать студийный альбом "Mer de Noms" (фр. Море имен). Тим Александр вскоре был заменен Джошем Фрисом из The Vandals, однако в песне "The Hollow" все еще можно услышать игру Тима. После завершения альбома, группа принимает участие в нескольких турах в США и Канаде. К записи второго альбома A Perfect Circle готовились уже без двух своих музыкантов: Пэз Леншантин и Троя ван Льюена. Пэз присоединилась к группе Zwan, а Трой - к Queens of the Stone Age. Однако Леншантин к тому времени записала почти все партии для бас-гитары для нового альбома. На место покинувших группу музыкантов были приняты Джорди Уайт (Jeordie White) (также известный как Твигги Рамирез), бывший басист Мэрилин Мэнсона, и гитарист Дэнни Лонер (Danny Lohner). Однако, Лонер не подошел группе как второй гитарист, и на новом альбоме его можно услышать только в песне "The Noose". Место Дэнни Лонера занял Джеймс Иха (James Iha) из The Smashing Pumpkins. Записав второй альбом "Thirteenth step" 16-го сентября 2003 г, группа провела остаток года в турах по Северной Америке, Европе и Японии. В 2004 APC продолжили туры по Австралии, Японии, Новой Зеландии и Европе, завершив тур весной выступлениями в США. Третий альбом "eMOTIVe" был записан 2-го ноября 2004г и содержит каверы на антивоенные песни таких музыкантов, как Джон Леннон и Джони Митчелл. 16 ноября 2004г, выпустила DVD-и-CD-сэт названный "aMOTION". На нем представлены ранее не издававшиеся видеоклипы а также b-sides и ремиксы. Режиссёром клипа к песне Judith (2000) был Дэвид Финчер. Сейчас будущее A Perfect Circle остается неясным. В интервью франзускому журналу "Rock Hard" Кинэн сказал, что считает APC завершенным проектом и в обозримом будущем изменений не предвидится. Билли Хаурдел подтвердил его слова и сказал, что не планирует записи нового альбома или концертных туров. Сейчас два лидера группы заняты сольными проектами: новая группа Билли Хаурдела ASHES dIVIDE выпустила один из самых примечательных альбомов 2008 года, а проект Мэйнарда Дж. Кинэн Puscifer получил много неоднозначных оценок. 9 декабря 2008 Кинан заявил, что он и Билли Хаурдел пишут новый материал для A Perfect Circle, и что в их планы пока что не входит продолжение полноценного турне и даже запись альбома. Вместо этого они сосредоточат внимание на паре композиций, которые скорее всего будут выпущены через интернет. 7 апреля 2009 группа выпускает свой первый релиз после перерыва — мини-альбом «Deep Cuts», состояший из трёх концертных записей и одной демо-композиции материала «Mer de Noms»; а 17 сентября Кинан заявил о том, что новый материал уже на подходе. Скрыть...
Популярные аккорды A Perfect Circle:
алфавиту | просмотрам | случайно
  • Tuning- Db Ab Db Gb Bb Eb
    
    w/delay
    
    |--------------------------------------|
    |--------------------------------------|
    |-/17-17-17h19-19/14-14-14h15p14h15p14-|
    |--------------------------------------|
    |--------------------------------------|
    |--------------------------------------|
    
    |----------------------------------------|
    |----------------------------------------|
    |-/17-17-17h19-19--19-19-19^-19^-19^-19^-|
    |----------------------------------------|
    |----------------------------------------|
    |----------------------------------------|…
  • Tuning- C# F# B E G# C#
    
    Intro
    
    Finger picking on an acoustic
    
    |----------------------------------------|
    |-3-----3---3-----3---3-----3---/7-----7-|
    |---0---------0---------0----------0-----|
    |----------------------------------------|
    |-3---3-----3---3-----3---3-----/7---7---|
    |----------------------------------------|
    
    |------------------------------------------|
    |-3-----3---3-----3---/10-------10/7-----7-|
    |---0---------0------------0---------0-----|
    |------------------------------------------|
    |-3---3-----3---3-----/10----10---/7---7---|
    |------------------------------------------|
    
    |----------------------------------------|
    |-3-----3---3-----3---3-----3---/7-----7-|
    |---0---------0---------0----------0-----|
    |----------------------------------------|
    |-3---3-----3---3-----3---3-----/7---7---|
    |----------------------------------------|
    
    |------------------------------------------|
    |-3-----3---3-----3---/10-------10/7-----7-|
    |---0---------0------------0---------0-----|
    |------------------------------------------|
    |-3---3-----3---3-----/10----10---/7---7---|
    |------------------------------------------|
    
    |--------------------------------|
    |-/8-----8--8-----8--8-----8---8-|
    |----0--------0--------0---------|
    |--------------------------------|
    |-/8---8----8---8----8---8-----8-|
    |--------------------------------|
    
    Verse
    
    |--------------------------------------|
    |-3-----3---3-----3---/7-----7/8-----8-|
    |---0---------0----------0-------0-----|
    |--------------------------------------|
    |-3---3-----3---3-----/7---7--/8---8---|
    |--------------------------------------|
    
    At…
  • Tuning- C# F# B E G# C#
    
    Intro
    
    Gtr.1
    
    |--------------------------------------|
    |--------------------------------------|
    |--------------------------------------|
    |-11-11-11-11/9-9-9-9--2-2-2-2-2h4-4p2-|
    |-11-11-11-11/9-9-9-9--2-2-2-2-2h4-4p2-|
    |-9--9--9--9-/7-7-7-7--0-0-0-0-0h2-2p0-|
    
    Gtr.2
    
    |-------------------------------------------|
    |-------------------------------------------|
    |-13-13-13-13-13/16-16-16-16-16-16-16-16-16-|
    |--x--x--x--x--x--x--x--x--x--x--x--x--x--x-|
    |-11-11-11-11-11/14-14-14-14-14-14-14-14-14-|
    |-------------------------------------------|
    
    |------------------------------------------|
    |------------------------------------------|
    |-13-13-13-13-13-13-13-13-13-13/9-9-9-9-9--|
    |--x--x--x--x--x--x--x--x--x--x-x-x-x-x-x--|
    |-11-11-11-11-11-11-11-11-11-11/7-7-7-7-7--|
    |------------------------------------------|
    
    |---------------------------------------------|
    |---------------------------------------------|
    |-13-13-13-13-13/16-16-16-16-16-/18-18-16-16-|
    |--x--x--x--x--x--x--x--x--x--x---x--x---x--x-|
    |-11-11-11-11-11/14-14-14-14-14-/16-16-14-14-|
    |---------------------------------------------|
    
    |-------------------------------------------|
    |-------------------------------------------|
    |-13-13-13-13-13-13-13-13-13-13-13-13-13-13-|
    |--x--x--x--x--x--x--x--x--x--x--x--x--x--x-|
    |-11-11-11-11-11-11-11-11-11-11-11-11-11-11-|
    |-------------------------------------------|
    
    Verse
    
    |---------------------|
    |---------------19/17-|
    |-----------16--------|
    |-11-11--14-----------|
    |-11-11---------------|
    |-9--9----------------|
    
    *They…
  • Intro
    -------------------------------------------------------
    -------------------------------------------------------
    ---------------------------------------------17-17-16--
    -10h12-12-12--12-10-12-13-12-10--10h12-12-12-----------
    -10h12-12-12--12-10-12-13-12-10--10h12-12-12-15-15-14--
    -10h12-12-12--12-10-12-13-12-10--10h12-12-12-----------
    
    Verse…
  • Tuning: C# F# B E G# C# (Frequently used by Billy Howerdel)
    
    X's under the tab mean notes directly above them are palm muted.
    
    Intro/Chorus 1
    C#|-------------------------------------------------|
    G#|-------------------------------------------------|
    E…
  • 3:20
     e----10--9---------------------|
     B------------7-----------------|
     G------------------------------|
     D------------------------------|
     A------------------------------|
     D------------------------------|
    
     e---------------------------------------|…
  • this song was tabs in D tuning but is probly played in C.
    
    G|------------------------------------|
    D|------------------------------------|
    A|-5-/8-------------5-3--------------|
    D|------0--3-3--0--------0--1-1--0----|…
  • Tuning is Three steps down ( C#, F#, B, E )
    
    Riff #1
    
    F#|--------|--------|--------|--------| - Not exact number of notes - 
    C#|00000000|00000000|00000000|33333333|   the picking's easy to pick out
    
    Riff #2
    
    F#|--------|--------|--------|--------|
    C#|-0------|--------|--------|-3------|
    
    Riff…
  • C# F# B E G# C#
    
    Intro: (Guitar in standard EADGBE)
    
    acoustic, slowly
    
    e-----------------------------------------------------------------
    b-5-----5-----4-----4-----4------0-----------0-----------0--------
    g---6-----6-----6-----6-----6------6---6-------6---6-------6------
    d-----6-----6-----5-----5-----5------6---6-------6---6-------65/6
    a-4-----4-----4-----4-----4---------------------------------------
    e--------------------------------5---------5-5---------x-5--------
    
    e---------------------------9------------9-------------------9----
    b-5-----5-----4-----4-----4--------0-----------0-----------0------
    g---6-----6-----6-----6--------------6-----------6---6-----6------
    d-----6-----6-----5-----5-----5--------6---6-------6---6---6---6--
    a-4-----4-----4-----4-----4--------------------------------x------
    e-------------------------------/5-5---------5-5---------5-5------
    
    Half…
  • Tuning:  c# G# E B F# C# 
    
    Legend:
    h   Hammer-On,        ex:  2h3
    p   Pull-Off,         ex:  3p2
    /   Slide,            ex:  4/7
    
    
    
    Guitar 1 Intro[0:00 - 0:18]
    c#|-----------------------------------------------------------------------------|
    G#|-----------------------------------------------------------------------------|
    E…
  • Tuning: Standard with capo on 2nd fret
    
    
    Intro
    |--------0-----------0---0----------0------------0------|
    |----------0-----------0--------------0~-----------0----|
    |-------------------------------------------------------|
    |----2-----------2--------------2------------2----------|
    |------5-----------5-------5------5------------5-----0~-|
    |-0-----------0--------------3------------3-------------|
    
    |--------0---0---------0---0----------0------------0---0---|
    |----------0-------------0--------------0~-----------0-----|
    |----------------------------------------------------------|
    |----2-------------2--------------2------------2-----------|
    |------5-------------5-------5------5------------5-------5-|
    |-0-------------0--------------3------------3--------------|
    
    Verse/Chorus
    |--------0---0---------0---0----------0------------0---0---|
    |----------0-------------0--------------0~-----------0-----|
    |----------------------------------------------------------|
    |----2-------------2--------------2------------2-----------|
    |------5-------------5-------5------5------------5-------5-|
    |-0-------------0--------------3------------3--------------|x12
    
    Interlude
    |--------0---0-----------------------------------------|
    |----------0------------0---0---------0----------------|
    |-------------------------6----------------------------|
    |----2---------------0--------------0------------------|
    |------5-----------4--------------4------5--4-4--------|
    |-0-------------0--------------0----------------5--5-4-|
    
    |---------0---0--------------------------------------------|
    |-----------0---------------0------------0--------------0--|
    |-----------------------6-----6----------------------------|
    |-----2---------------0---0------------0----0-----0---0----|
    |-------5-----------4----------------4----------4---4------|
    |--0-------------0----------------0-----------0------------|
    
    Ending
    |-----------------------------------------------------|
    |-----------------------------------------------------|
    |-----------------------------------------------------|
    |----0-0--0----x-0----0-0-0-0-----0---0------0---0----|
    |-5--5-5--5--5-x-5-5--5-5-5-5-------4---4~-----4---4~-|
    |-0--0-0--0--0-x---0--0-0-0-0--0-----------0----------|x4…
  • TIPO 1          TIPO 2    
    e|--3------7-----||-5H7/3-2-3---||-5--2-3-----|
    B|----3------8---||-------------||------------|
    G|--0---0--0---0-||-0-----0-----||-0--0-------|
    D|---------------||-------------||------------|
    A|---------------||-------------||------------|
    E|---------------||-------------||------------|
    
    ALTERNA…
  • Tuning: C# F# B E G# C# 
    
    Intro
     |---------------------------------------------------|
     |---------------------------------------------------|
     |---------------------------------------------------|
     |------0---0---0---0--------------------------------|…
  • Tune Down: C# F# B E G# C#
    
    Gtr 1. acoustic w/ delay
    
    e---------0----------0----------0----------------------------
    b------7----------7----------7---------7---------------------
    g---0----------0----------0----------0-------0---------------
    d-4----------4----------4----------4-------4-----------------
    a----------------------------------------5-------------------
    e------------------------------------------------------------
    
    Verses…
  • THIS IS MY SECOND SONG SO HOPE ITS OK. SECOND BEST SONG ON THE ALBUM TOO.
    REMEMBER DROP-D B4 TRYING. - ---- PeaRce
    
    00:34
    G-------------------------|
    D-------------------------|
    A-------------------------|
    D-66666-66-6666~----------|
    
    
    00:50
    G----------------------------------------------|
    D----------------------------------------------|
    A-44-222222222222------------------------------|
    D--------------------2222222222222-------------|
    
    01:07
    G-----------------------------------------------------------|
    D-----------------------------------------------------------|
    A-----------------------------------------------------------|
    D-66-66-66-6-666/99-9922-2222-44-44-22-222-4-2-4-4444-2222-|
    
    Basically…
  • Tuning- Drop D half a step down (Db Ab Db Gb Bb Eb)
    
    h - hammer on 
    p - pull off 
    b - bend string up
    ^ - bend string to the percent to the next note shown (1/4, 1/2, 1, 2)
    r - release bend
    / - slide up
     - slide down
    v -…
  • INTRO
    G----------------------------------------|
    D----------------------------------------|    (very faint)
    A-----66666666666666666666--4444444444---|  (listen to timing)
    D----------------------------------------|
    
    CHORUS…
  • Intro:
    E |--------------------------------------------------
    B |--------------------------------------------------
    F#|-----5-7-7-5-7--7-7-5-7-----5-7-7-5-7---7-7-5-7---
    Db|--5-7---------5---------5-7-----------5-----------
    
    Verse:…
  • C# F# B E G# C#
    
    Intro:
    
    G5oct                               E5oct
    
    Riff B: Bass gtr
    
    g-----------------------------------------------------------------
    d-----------------------------------------------------------------
    a---3h5---------3h5-----------------3h5---------3h5---------------
    e-------0-5-5-------0-5-5---5---5-------0-5-5-------0-5-5---1---0-
    
    Riff…
  • C# F# B E G# C#
    Gtr 1 and 3: Capo on the 3rd fret, so it sounds
    ( E A D G B E )
    
    Riff A
    
    e-----------0-------------0----------
    b-------------4---------4---4--------
    g-0-------0-----0-----0--------------
    d---2---2-----------2----------------
    a-----0-----------0------------------
    e------------------------------------
    
    Piano…
  • C# F# B E G# C#
    
    Riff A
    Kalimba arr. for gtr
    
    e-4----3--4--------------------4----3--4--------------------------
    b-----------------------------------------------------------------
    g-----------------------------------------------------------------
    d-----------------------------------------------------------------
    a-----------------------------------------------------------------
    e-----------------------------------------------------------------
    
    e-4----3--4--------3-----------4-------3--------------------------
    b-------------------------------------------------4---------------
    g-----------------------------------------------------------------
    d-----------------------------------------------------------------
    a-----------------------------------------------------------------
    e-----------------------------------------------------------------
    
    Verse
    
    e-4----3-----------------------4----3-----------------------------
    b-----------4----6------------------------4----6------------------
    g-----------------------------------------------------------------
    d-----------------------------------------------------------------
    a-----------------------------------------------------------------
    e-----------------------------------------------------------------
    
    e-4----3-----------------------4----3-------------------------1---
    b-----------4----6-------------------------4----2--------2--------
    g-----------------------------------------------------------------
    d-----------------------------------------------------------------
    a-----------------------------------------------------------------
    e-----------------------------------------------------------------
    
    Interlude:…
Наверх