Аккорды Aerosmith - Big Ten Inch Record

Добавлено: @romashka
Дата добавления: 16 Марта 2013г.
Рейтинг:
0.0
Просмотров: 457
G|---------------|---------|-------4-5-4-----|-----------------|
D|---------------|---------|---4-7-------7-4-|-------4-5-4-----|
A|---------------|---------|-5---------------|---4-7-------7-4-|
E|-0-0--0-0-0--0-|-0---0-0-|-----------------|-5---------------|

                       tacet
G|-------4-5-4-----|-------|-------4-5-4-----|-----------------|
D|---4-7-------7-4-|-------|---4-7-------7-4-|-------4-5-4-----|
A|-5---------------|-7-----|-5---------------|---4-7-------7-4-|
E|-----------------|-------|-----------------|-5---------------|

                                      [guitar solo]
G|-------------|---------------|---------------|---------------|
D|--------4-5-6|--4-5-6-7-4----|---------------|---------------|
A|-4-5-6-7-----|7-----------7-4|---------------|---------------|
E|7------------|---------------|5-3-2-0-5-3-2-0|5-3-2-0-5-3-2-0|


G|---------------|---------------|-------------|---------------|
D|---------------|---------------|-------------|------4-7-4----|
A|5-3-2-0-5-3-2-0|---------------|7-5-4-7-5-4--|--4-7-------7-6|
E|---------------|5-3-2-0-5-3-2-0|-----7------7|5--------------|

                                                           tacet
G|-------4-5-4-----|-----------------|-------4-5-4-----|-------|
D|---4-7-------7-4-|-------4-5-4-----|---4-7-------7-4-|-------|
A|-5---------------|---4-7-------7-4-|-5---------------|-7-----|
E|-----------------|-5---------------|-----------------|-------|


G|-----4-5-4----|-------------|---------------|----------------|
D|--4-7------7-4|----4-5-4----|----------4-5-6|---4-5-6-7-4----|
A|5-------------|-4-7------7-4|--4-5-6-7------|-7-----------7-6|
E|--------------|5------------|7--------------|----------------|

                                                           tacet
G|-------4-5-4-----|-----------------|-------4-5-4-----|-------|
D|---4-7-------7-4-|-------4-5-4-----|---4-7-------7-4-|-------|
A|-5---------------|---4-7-------7-4-|-5---------------|-7-----|
E|-----------------|-5---------------|-----------------|-------|

                                                (h = hammer-on)
G|------4-5-4----|---------------|-------------|--------------5|
D|--4-7-------7-4|------4-5-4----|--------4-5-6|--4-5-6----4h7-|
A|5--------------|--4-7-------7-4|-4-5-6-7-----|7-------0-7----|
E|---------------|5--------------|7------------|---------------|

  +-- play each note as a triplet --+ [sax solo]
G|--------------|---------4-5-6|---------------|---------------|
D|--------------|3-4-5-6-7-----|---------------|---------------|
A|-----3-4-5-6-7|--------------|5-3-2-0-5-3-2-0|---------------|
E|5-6-7---------|--------------|---------------|5-3-2-0-5-3-2-0|


G|-------------|---------------|------4-5-4----|---------------|
D|-------------|------4-7-4----|--4-7-------7-4|------4-5-4----|
A|7-5-4-7-5-4--|--4-7-------7-6|5--------------|--4-7-------7-4|
E|-----7------7|5--------------|---------------|5--------------|

                       tacet
G|-------4-5-4-----|-------|-------4-5-4-----|-----------------|
D|---4-7-------7-4-|-------|---4-7-------7-4-|-------4-5-4-----|
A|-5---------------|-7-----|-5---------------|---4-7-------7-4-|
E|-----------------|-------|-----------------|-5---------------|

                       tacet                     (hold)
G|-----------------|---------14-12-9-|-7-5-------------|
D|-----------4-5-6-|-----------------|-----7-5---------|
A|---4-5-6-7-------|-7---------------|---------7-0-----|
E|-7---------------|-----------------|-----------------|
Музыка не только фактор облагораживающий, воспитательный. Музыка – целитель здоровья (Бехтерев)
Мы стремимся к созданию контента, соответствующего всем нормам законодательства и уважающего интеллектуальную собственность. Мы также придаем большое значение тому, чтобы не задеть никого и не оскорбить чьи-либо чувства. Если у вас есть вопросы или претензии по размещенному материалу, пожалуйста, сообщите нам об этом на указанный адрес электронной почты: [email protected].
Шрифт
-
0
+
Прокрутка
-
0
+
Стоп
Наверх