Аккорды Aerosmith - Cryin'

Добавлено: @romashka
Дата добавления: 16 Марта 2013г.
Рейтинг:
0.0
Просмотров: 453
E||----------------------|-------------------|----------|
B||-----------1----------|-------------------|--1-------|
G||--------3--0-----0----|----------------3--|--0-----0-|
D||--------3-----3--0----|----------------3--|-----3--0-|
A||--------1--3--3-------|----------------1--|--3--3----|
E||--------------1--3----|-------------------|-----1--3-|

E|----------------------|----|----------|
B|-----------1----------|----|--1-------|
G|--------3--0-----0----|-3--|--0-----0-|
D|--------3-----3--0----|-3--|-----3--0-|
A|--------1--3--3-------|-1--|--3--3----|
E|--------------1--3----|----|-----1--3-|

E|-----------|----0-----------------0-|------------------------|
B|-----------|-------2----------------|-0--------------2-------|
G|-3----2----|-2--------0--------1----|----0--------2-----2----|
D|-3-------2-|----------------2-------|----------4-----------4-|
A|-1---------|------------------------|------------------------|
E|-----------|-------------0----------|----0--2----------------|

E|-----------0--------------|-----2-----------------0--|
B|--------2-----2-----------|--3-----3-----------2-----|
G|-----1-----------1-----2--|-----------0-----2--------|
D|--------------------0-----|-----------------2--------|
A|--4-----------------------|--------------0-----------|
E|--------------------------|--------------------------|

E|-----------------0--------|-----------0--------------|
B|--2-----------------0-----|-----0--------0-----------|
G|-----0--------1--------1--|--------1--------0--------|
D|-----------2--------------|-----------------------2--|
A|--------------------------|--------------------0-----|
E|--------0-----------------|--0--------------0--------|

E|-----0-----------------0--|--------------------------|
B|--------2-----------------|--0--------------2--------|
G|--2--------2--------1-----|-----0--------2-----2-----|
D|-----------------2--------|-----------4-----------4--|
A|--------------------------|--------------------------|
E|--------------0-----------|--------2-----------------|

E|-----------0--------------|-----2-----------------0--|
B|--------2-----2-----------|--3-----3-----------------|
G|-----1-----------1-----2--|-----------0--------2-----|
D|--------------------0-----|-----------------2--------|
A|--4-----------------------|--------------0-----------|
E|--------------------------|--------------------------|
                                                 G5          Dm
E|-----------------0--------|-----------0-------------|--------|
B|--2-----------------0-----|--------------0----------|------3-|
G|-----0--------1--------1--|--------1--------0--0----|------2-|
D|-----0-----2--------------|--0--2-----2--------0----|------0-|
A|--------------------------|-------------------------|--------|
E|--------0-----------------|--------------------3----|--------|

        G5              Dm           C5              G5
E|-------------------|--------------------|------------|
B|-------------------|--3------------1----|------------|
G|------0------------|--2------------0----|----------0-|
D|------0------------|--0-----------------|----------0-|
A|-------------------|---------------3----|------------|
E|------3------------|--------------------|----------3-|

        E                              A                E
E|------0------------|-----------------0----|-----------0-|
B|------0------------|-----------------2----|-----------0-|
G|------1------------|-----------------2----|-----------1-|
D|------2------------|-----------------2----|-----------2-|
A|------2------------|-----------------0----|----0------2-|
E|------0------------|--0--0--0-------------|-----------0-|

         F#m              D             A               E
E|-------2-------------|--2-------------0----|----------0-|
B|-------2-------------|--3-------------2----|----------0-|
G|-------2-------------|--2-------------2----|----------1-|
D|-------4-------------|--0-------------2----|----------2-|
A|-------4-------------|----------------0----|----------2-|
E|----0--2----------0--|-------------0-------|----------0-|

        D                           A               E
E|------2------------|--------------0----|----------0------|
B|------3------------|--------------2----|----------0------|
G|------2------------|--------------2----|----------1------|
D|------0------------|--------------2----|----------2------|
A|-------------------|--------------0----|----------2------|
E|-------------------|-------------------|----------0----0-|

         C#m             D             A                E
E|-------4------------|--2-------------0----|-----------0-|
B|-------5------------|--3-------------2----|-----------0-|
G|-------6------------|--2-------------2----|-----------1-|
D|-------6------------|--0-------------2----|-----------2-|
A|-------4------------|----------------0----|------2----2-|
E|----0---------------|-------------0-------|-----------0-|

          D                                                 A#5
E|--------2---------|----------------------|-------------------|
B|--------3---------|-----------1----------|-------------------|
G|--------2---------|--------3--0-----0----|----------------3--|
D|--------0---------|--------3-----3--0----|----------------3--|
A|------------------|--------1--3--3-------|----------------1--|
E|--0--0------------|--------------1--3----|-------------------|

                                                            A#5
E|------------------|----------------------|-------------------|
B|--1---------------|-----------1----------|-------------------|
G|--0-----0---------|--------3--0-----0----|----------------3--|
D|-----3--0---------|--------3-----3--0----|----------------3--|
A|--3--3------------|--------1--3--3-------|----------------1--|
E|-----1--3---------|--------------1--3----|-------------------|

                 A#5
E|------------|---------------------|-----0-----------------0--|
B|--1---------|---------------------|--------2-----------------|
G|--0-----0---|--3------------2-----|--2--------0--------1-----|
D|-----3--0---|--3---------------2--|-----------------2--------|
A|--3--3------|--1------------------|--------------------------|
E|-----1--3---|---------------------|--------------0-----------|

E|--------------------------|-----------0--------------|
B|--0--------------2--------|--------2-----2-----------|
G|-----0--------2-----2-----|-----1-----------1-----2--|
D|-----------4-----------4--|--------------------0-----|
A|-----------------------0--|--4-----------------------|
E|-----0--2-----------4-----|--------------------------|

E|-----2-----------------0--|-----------------0--------|
B|--3-----3-----------2-----|--2-----------------0-----|
G|-----------0-----2--------|-----0--------1--------1--|
D|-----------------2--------|-----------2--------------|
A|--------------0-----------|--------------------------|
E|-----------0--------------|--0-----0--------------0--|

E|-----------0--------------|-----0-----------------0--|
B|-----0--------0-----------|--------2-----------------|
G|--------1--------0--------|--2--------2--------1-----|
D|-----------------------2--|-----------------2--------|
A|--------------------0-----|--------------------------|
E|--0--------------0--------|--------------0-----------|

E|--------------------------|-----------0--------------|
B|--0--------------2--------|--------2-----2-----------|
G|-----0--------2-----2-----|-----1-----------1-----2--|
D|-----------4-----------4--|--------------------0-----|
A|--------------------------|--4--------4--0-----------|
E|-----0--2-----------2--4--|--------------------------|

E|----2-----------------0-|-----------0-----|-------0-------|
B|-3-----3----------------|-2-----------0---|---------0-----|
G|----------0--------2----|---0-----1-----1-|-----1-----0-0-|
D|----------------2-------|---0---2---------|-0-2---2-----0-|
A|-------------0----------|-----2-----------|---------------|
E|----------0-------------|-----0-0-0-------|---0-0-0-----3-|

            D5              G5              D5           C5
E|-------------------|-------------------|--------------------|
B|----------3--------|-------------------|--3------------1----|
G|----------2--------|------0------------|--2------------0----|
D|----------0--------|------0------------|--0-----------------|
A|-------------------|-------------------|---------------3----|
E|-------------------|------3------------|--------------------|

            G5              E                              A
E|-------------------|------0------------|-----------------0---|
B|-------------------|------0------------|-----------------2---|
G|----------0--------|------1------------|-----------------2---|
D|----------0--------|------2------------|-----------------2---|
A|-------------------|------2------------|-----------------0---|
E|----------3--------|------0------------|--0--0--0------------|

            E               F#m             D            A
E|----------0--------|------2------------|--2------------0----|
B|----------0--------|------2------------|--3------------2----|
G|----------1--------|------2------------|--2------------2----|
D|----------2--------|------4------------|--0------------2----|
A|----------2--------|------4------------|---------------0----|
E|----------0--------|------2------------|--------------------|

            E                D                             A
E|----------0--------|-------2------------|----------------0---|
B|----------0--------|-------3------------|----------------2---|
G|----------1--------|-------2------------|----------------2---|
D|----------2--------|-------0------------|----------------2---|
A|----------2--------|--------------------|----------------0---|
E|----------0--------|--0-----------------|----------0--0------|

             E              C#m            D              A
E|-----------0---------|----4-----------|--2--------------0----|
B|-----------0---------|----5-----------|--3--------------2----|
G|-----------1---------|----6-----------|--2--------------2----|
D|-----------2--2------|----6-----------|--0--0-----------2----|
A|----0------2---------|----4--4--------|-----------------0----|
E|-----------0-------0-|-0------------4-|--------------0-------|

    E        D
E|--0--|-----2--|--------------|
B|--0--|-----3--|-----1--------|
G|--1--|-----2--|--3--0-----0--|
D|--2--|-----0--|--3-----3--0--|
A|--2--|--------|--1--3--3-----|
E|--0--|--0-----|--------1--3--|

E|-----|-----------|----------------|
B|-----|--1--------|-----1----------|
G|--3--|--0-----0--|--3--0-----0----|
D|--3--|-----3--0--|--3-----3--0----|
A|--1--|--3--3-----|--1--3--3-------|
E|-----|-----1--3--|--------1--3----|

                                A#5          D#5D#5
E|-----|---------------------|---------------------|
B|-----|--1------------------|---------------4--4--|
G|--3--|--0-----0------------|--3------------3--3--|
D|--3--|-----3--0------------|--3------------1--1--|
A|--1--|--3--3---------------|--1------------------|
E|-----|-----1--3------------|---------------------|

                A#5                  D#5
E|--------------------------|--------------------------|
B|--4--4--4--4--------------|--------4--4--4--4--4--4--|
G|--3--3--3--3--3--3--3--3--|--3--3--3--3--3--3--3--3--|
D|--1--1--1--1--3--3--3--3--|--3--3--1--1--1--1--1--1--|
A|--------------1--1--1--1--|--1--1--------------------|
E|--------------------------|--------------------------|

    A#5               G#5                  D#5
E|--------------------------|--------------------------|
B|--------------------------|--------------4--4--4--4--|
G|--3--3--3--3--3--3--1--1--|--1--1--1--1--3--3--3--3--|
D|--3--3--3--3--3--3--1--1--|--1--1--1--1--1--1--1--1--|
A|--1--1--1--1--1--1--------|--------------------------|
E|--------------------4--4--|--4--4--4--4--------------|

          E5
E|--------0--0--0--0--0--0--|--0--0--0--0--0--0--0--0--|
B|--4--4--0--0--0--0--0--0--|--0--0--0--0--0--0--0--0--|
G|--3--3--------------------|--------------------------|
D|--1--1--2--2--2--2--2--2--|--2--2--2--2--2--2--2--2--|
A|--------------------------|--------------------------|
E|--------0--0--0--0--0--0--|--0--0--0--0--0--0--0--0--|

                E5          E/C             A
E|--0--0--0--0--0---0---0---0-----|--0---0--0--------0--------|
B|--0--0--0--0--0---0---0---0-----|--0---0--2-----------2-----|
G|--------------------------------|---------2-----2--------0--|
D|--2--2--2--2--2-2-2-2-2-2-2-2-2-|--2-2-2--2--2--------------|
A|--------------0---0---0---3-----|--0---0--0-----------------|
E|--0--0--0--0--------------------|---------0-----------------|

    E                 A6                   D
E|--0--------0--------------|-----0--------2--------2--|
B|--0-----------0-----2-----|--2-----2-----3-----3-----|
G|--1-----1--------0--2--1--|-----------1--2--2--------|
D|--2--2--------------4-----|--------------0-----------|
A|--2-----------------4-----|--------------5-----------|
E|--0-----------------0-----|--------------------------|

          A                    E            D
E|--------0--------0--------|--0------0-----2-|----------------|
B|--3-----2-----------2-----|--0--------0---3-|---0--0-----0-1-|
G|-----0--2-----2--------0--|--1----1-----0-2-|-2------2-2-----|
D|--------2--2--------------|--2--2-----------|-0-0--0-0-0-0-0-|
A|--------0-----------------|--2--------------|----------------|
E|--------0-----------------|--0--------0-----|----------------|

         A                  E                 F#   D
E|-------0--------0-------|-0--------0--------2--|-2--------2--|
B|-0-----2-----------2----|-0-----------0-----7--|-3-----3-----|
G|----2--2-----2--------0-|-1-----1--------0--6--|-2--2--------|
D|-0--0--2--2-------------|-2--2--------------7--|-0--0--------|
A|-------0--------0-------|-2--7--------------9--|-0-----------|
E|-0--0--5----------------|-0--------0-----0--9--|-------------|

         A                  E              D
E|-------0--------0-------|-0-------0------2-|-----------------|
B|-3-----2-----------2----|-0----------0---3-|---0-0---------0-|
G|----0--2-----2----------|-1-----1------0-2-|-2-----2-2-2-2---|
D|-------2--2-----------0-|-2--2-------------|-0-0-0-0-0-0-0-0-|
A|-------0----------------|-2----------------|---------5-5-5-5-|
E|----0--0----------------|-0------------0---|-----------------|

          D        Bm          D        Bm       A
E|--------2--2--2--2--2--2--|--2--2--2--2--2--2--0-----|
B|--0-----3--3--3--3--3--3--|--3--3--3--3--3--3--2-----|
G|-----2--2--2--2--4--4--4--|--2--2--2--4--4--2--2-----|
D|--0--0--------------------|--------------------2--2--|
A|--5--5--------------------|--------------------0-----|
E|--------------------------|--------------------------|

                E                    F#m
E|-----0--------0--------0--|--------2--------0--------|
B|--------2-----0-----------|--0-----2-----2-----2-----|
G|--2--------0--1-----1-----|-----0--2--1-----------1--|
D|--------------2--2--------|--------4-----------------|
A|--------------2-----------|--------4-----------------|
E|--------------0-----------|--------2-----------------|

    D                 A                    E
E|--2--------2--------0-----|-----0--------0--------0--|
B|--3-----3-----3-----2-----|--------2-----0-----------|
G|--2--2-----------0--2-----|--2--------0--1-----1-----|
D|--0-----------------2--2--|--------------2--2--------|
A|--5-----------------0-----|--------------2-----------|
E|--------------------5-----|--------------0-----------|

         D                                             A
E|-------2--0--10---------|--12------12--------14------0-----|
B|-0-----3---------7----8-|-----------------10-----10--2-----|
G|----0--2----------------|------12------12------------2-----|
D|-------0------------7---|----------------------------2--2--|
A|-------5----------------|----------------------------0-----|
E|-0----------------------|--------------------0---0---5-----|

                E                    C#m
E|-----0--------0--------0--|--------0--------2--------|
B|--------2-----0-----------|--0-----9-----------2-----|
G|--2--------0--1-----1-----|-----0--6-----2--------2--|
D|--------------2--2--------|--------6--4--------------|
A|-----0--------2--7--------|--------4--4--------------|
E|--------------0--------0--|-----0--9-----------4-----|

    D                 A                  E                  D
E|--2--------2--------0----|-------------0----------|-------2-|
B|--3-----3-----3-----2----|-------------0----------|-------3-|
G|--2--2-----------0--2----|-------------1----------|-------2-|
D|--0--0--------------2----|-------------2----------|-------0-|
A|--5-----------------0----|-------------2----------|---------|
E|-----------------0--0--0-|-0--0--0--0--0--0--0--0-|-0--0----|

    D                                           A
E|--2--2--|--2--2---2--2--2---2--2--2--|--2--2--0--------|
B|--3--3--|--3--3---3--3--3---3--3--3--|--3--3--2--------|
G|--2--2--|--2--2---2--2--2---2--2--2--|--2--2--2--------|
D|--0--0--|--0--0-0-0--0--0-0-0--0--0--|--0--0--2--------|
A|--5--5--|--5--3---5--5--3---5--5-----|--------0------0-|
E|--------|----------------------------|-----------------|

    E             F#m              D                A
E|--0-------------2----|-----------2--------|-------0-|
B|--0-------------2----|-----------3--------|-------2-|
G|--1-------------2----|-----------2--------|-------2-|
D|--2-------------4----|-----------0--------|-------2-|
A|--2-------------4----|--------------------|-------0-|
E|--0----------0--2----|--------0-----------|----0----|

    E            D                              A
E|--0------------2----|------------------|------0-|
B|--0------------3----|------------------|------2-|
G|--1------------2----|------------------|------2-|
D|--2------------0----|------------------|------2-|
A|--2-----------------|------------------|------0-|
E|--0-----------------|------------------|--------|

    E              F#m             D                A
E|--0--------------2----|----------2--------|-------0----------|
B|--0--------------2----|----------3--------|-------2----------|
G|--1--------------2----|----------2--------|-------2----------|
D|--2--------------4----|----------0--------|-------2----------|
A|--2--------------4----|-------------------|-------0--------2-|
E|--0----0------0-------|-------------------|----0-------------|

    E              D       D
E|--0--------------2----|--2--2--2--2---2--2--|
B|--0--------------3----|--3--3--3--3---3--3--|
G|--1--------------2----|--2--2--2--2---2--2--|
D|--2--------------0----|--0--0--0--0-0-0--0--|
A|--2-------------------|--5--5--5--3---5--5--|
E|--0--------0--0-------|---------------------|

                       A
E|--2---2--2--2--2--2--0----|
B|--3---3--3--3--3--3--2----|
G|--2---2--2--2--2--2--2----|
D|--0-0-0--0--0--0--0--2----|
A|--3---5--5-----------0----|
E|--------------------------|
Музыка не только фактор облагораживающий, воспитательный. Музыка – целитель здоровья (Бехтерев)
Мы стремимся к созданию контента, соответствующего всем нормам законодательства и уважающего интеллектуальную собственность. Мы также придаем большое значение тому, чтобы не задеть никого и не оскорбить чьи-либо чувства. Если у вас есть вопросы или претензии по размещенному материалу, пожалуйста, сообщите нам об этом на указанный адрес электронной почты: [email protected].
Шрифт
-
0
+
Прокрутка
-
0
+
Стоп
Наверх