Аккорды Aerosmith - Deuces Are Wild

Добавлено: @romashka
Дата добавления: 16 Марта 2013г.
Рейтинг:
0.0
Просмотров: 489
{Verses}

|-----------------------------------------------------------------|
|-----------------------------------------------------------------|
|--7-----------7------------7------------5-------------7------10--|
|--7-----------7------------7------------5------5------7------10--|
|--5-----------5------------5------------3------5------5-------8--|
|-----------------------------------------------3-----------------|



{Chorus}

|----------------------------------|
|----------------------------------|
|--12------10--5-------------------|
|--12------10--5------8------3--5--|
|--10-------8--3------8------3--5--|
|---------------------6------1--3--|



{Durring Solo}

|----------------------------------------|
|----------------------------------------|
|--3------5------7------5------3------5--|
|--3------5------7------5------3------5--|
|--1------3------5------3------1------3--|
|----------------------------------------|




*


*
Ah

I love to look into your big brown eyes.
*
They talk to me and seem to hypnotize.

They say the things nobody dares to say,
*
and I'm not about to let you fly away.
* *
My lover with no jet lag, were staying up all night in my sleeping bag.
*
You got a heart beat rythym from subterean,
*
I really Love You Little girl, I dont neeeed to explain.


Chorus:
* * *
I love you cause your deuces are wild, girl
* * *
like a double shot of love is so fine
* * *
I been loving you since you was a child, girl
* * *
cuz you and me are two of a kind.


*
Ah

Like deja vu I feel like I been here,
*
Or somewhere else but you've been always near.

It's you that's in my dreams, I'm begging for
*
but I woke up when someone slammed the door
* *
so hard I fell out of bed, screaming mama's little baby loves shorten bread,
* *
and the moral of the story I can testify; I get stoned on you girl.

That's the best reason why.


{Chorus} x 2

{Durring Solo}

{Chorus} x 3
Но если и музыка нас оставит, что будет тогда с нашим миром? (Гоголь)
Мы стремимся к созданию контента, соответствующего всем нормам законодательства и уважающего интеллектуальную собственность. Мы также придаем большое значение тому, чтобы не задеть никого и не оскорбить чьи-либо чувства. Если у вас есть вопросы или претензии по размещенному материалу, пожалуйста, сообщите нам об этом на указанный адрес электронной почты: [email protected].
Шрифт
-
0
+
Прокрутка
-
0
+
Стоп
Наверх