Аккорды Aerosmith - I Don’t Want to Miss a Thing

Добавлено: @romashka
Дата добавления: 16 Марта 2013г.
Рейтинг:
0.0
Просмотров: 451
Intro
Guitar 1 (w/ clean tone)
e [---------------------------------------------
B [---------------------------------------------
G [---------------------------------------------
D [----------------2~~~~~---------------2~~~~~--
A [-2~~~~~-4~~~~~---------2~~~~~-4~~~~~---------
E [---------------------------------------------

e [---------------------------------------------
B [---------------------------------------------
G [---------------------------------------------
D [-4---2--0-----2~~~----------------2~~~~~-----
A [----------4/5-------2~~~~~-4~~~~~------------
E [---------------------------------------------

e [---------------------------------------------
B [---------------------------------------------
G [---------------------------------------------
D [----4---2--0-----2~~~----------------2~~~~~--
A [-2-----------4/5-------2~~~~~-4~~~~~---------
E [---------------------------------------------

e [---------------------------------------------
B [---------------------------------------------
G [---------------------------------------------
D [---------------------------------------------
A [-5~~~-4--2--0--------------------------------
E [---------------------------------------------

Guitar 2 (Clean electric)
e [----------------------------------------------
B [----------------------------------------------
G [-4-------------4-------------4-------------4--
D [-4-------------4-------------4-------------4--
A [-2-------------2-------------2-------------2--
E [----------------------------------------------


Verse
Guitar 1 (Clean, repeat throughout verse and prechorus)
e [---------------------------------------------
B [---------------------------------------------
G [---2-4----2-4----2-4----2-4----2-4----2-4----
D [-4------4------4------4------4------4--------
A [---------------------------------------------
E [---------------------------------------------

Guitar 2 (Clean, x2)
e [----------------------------------------------------
B [----------------------------------------------------
G [-7-----------------4-------------------7------------
D [-7--------7--------4----------5--------7--------2---
A [-5--------7--------2----------5--------5--------2---
E [-5--------5--------2----------3--------5--------0---


Pre-chorus
Guitar 2 (Clean)
e [---------------------------------------------
B [---------------------------------------------
G [-6------4------2-----------------------------
D [-6------4------2-----------------------------
A [-4------2------0-----------------------------
E [-4------2------------------------------------


Chorus
Guitar 1 (w/ distortion, x2)
e [---------------------------------------------
B [---------------------------------------------
G [---------------------------------------------
D [-7-------------------------------------------
A [-5-------7-------2------------5-------7------
E [---------5-------0----0h2h3---3-------5------

Guitar 2 (w/ distortion, x2)
e [-----0-------0-------0-----------3-----------
B [---3---3---3---3---3---3---3-5---3----5~~~---
G [-2-------2-------0-------0-------------------
D [---------------------------------------------
A [---------------------------------------------
E [---------------------------------------------

End 1st Chorus
Guitar 1 (w/ distortion)
e [---------------------------------------------
B [---------------------------------------------
G [---------------------------------------------
D [-7-------------------------------------------
A [-5-------7-------2---------------------------
E [---------5-------0---------------------------

Guitar 2 (w/ distortion)
e [-----0-------0------------0------------------
B [---3---3---3---3-------3-(3) -----------------
G [-2-------2-------0---------------------------
D [---------------------------------------------
A [---------------------------------------------
E [---------------------------------------------


Verse

Pre-chorus

Chorus

Bridge
e [------------------------------------------------------------
B [-----------------------------------------------------------e
G [------------------------------------------------------------
D [-5---------------3---------------5---------------7----------
A [-3-------5-------1-------3-------3-------5-------5-------7--
E [---------3---------------1---------------3---------------5--


After this, repeat the chorus riff 8 more times and that’s it. However, during
5th and 6th times, Guitar 2 play's Guitar 1's Intro part, only with distortion
this time.

Song Structure
Intro
Verse
Pre-chorus
Chorus
End Chorus
Verse
Pre-chorus
Chorus
Bridge
Chorus
Но если и музыка нас оставит, что будет тогда с нашим миром? (Гоголь)
Мы стремимся к созданию контента, соответствующего всем нормам законодательства и уважающего интеллектуальную собственность. Мы также придаем большое значение тому, чтобы не задеть никого и не оскорбить чьи-либо чувства. Если у вас есть вопросы или претензии по размещенному материалу, пожалуйста, сообщите нам об этом на указанный адрес электронной почты: [email protected].
Шрифт
-
0
+
Прокрутка
-
0
+
Стоп
Наверх