Аккорды Aerosmith - Kings and Queens

Добавлено: @romashka
Дата добавления: 16 Марта 2013г.
Рейтинг:
0.0
Просмотров: 430
-|-----------------|-----------------|------------------|--------------------|-
-|-----------------|-----------------|*----------------*|--------------------|-
-|-----------------|-----------------|--------10----8---|------10-----8------|-
-|-5-5-5-5-5-5-5-5-|-5-5-5-5-5-5-5-5-|-----10-----------|---10------8--------|-
-|-3-3-3-3-3-3-3-3-|-3-3-3-3-3-3-3-3-|*-8---------8----*|-8-------6----------|-
-|-----------------|-----------------|------------------|--------------------|-
Intro Riff 1 x3

-|-------------|-------------|----------------|--------------|---------------|-
-|*-----------*|-------------|*------1-------*|--------------|---------------|-
-|-----5----5--|-----5-----8-|-----0--------0-|--------------|-8-------------|-
-|---6---------|---6-----8---|---2-------22---|--------------|-8-------------|-
-|*4------4---*|-4-----6-----|*3-------3-----*|--------------|-6-------------|-
-|-------------|-------------|----------------|--------------|---------------|-
x3 Riff 2 x4 Repeat riff 1 Fill 1 (vol.

--------|---------------|------------------|---------------------------------|-
--------|---------------|------------------|---------------------------------|-
--------|---------------|------------------|---------------------------------|-
--------|---------------|-5-5-5-5-5-5-5-5--|-5-5-5-5-5--3--------------------|-
--------|---------------|-3-3-3-3-3-3-3-3--|-3-3-3-3-3--1--6-----------------|-
--------|---------------|------------------|---------------4-----------------|-
swell) Repeat Riff 2 Fill 2

-|-------------------|-----------------|------------------|------------------|-
-|-------------------|-----------------|------------------|------------------|-
-|-------------------|-----------------|------------------|------------------|-
-|---------------5-6^^^6-6-6-6-6-x-----|------------------|------------------|-
-|-3-3-3-3-3--x--3-4^^^4-4-4-4-4-x-3-4^^^44-4-4-4-4-4-4-4-|-6-6-6-6-6-6-6-6--|-
-|-1-1-1-1-1--x------|-------------1-2^^^22-2-2-2-2-2-2-2-|-4-4-4-4-4-4-4-4--|-
Interlude w/fill 3

-|-----------------|-----------------|------------------|--------------------|-
-|-----------------|-----------------|------------------|--------------------|-
-|-----------------|-----------------|------------------|--------------------|-
-|-3-3-3-3-3-3-3-3-|-3-3-3-3-3-3-3-3-|-5-55-5-5-5-5-5-5-|-5-5-5-5-5-5-5-5----|-
-|-1-1-1-1-1-1-1-1-|-1-1-1-1-1-1-1-1-|-3-33-3-3-3-3-3-3-|-3-3-3-3-3-3-3-3----|-
-|-----------------|-----------------|------------------|--------------------|-


-|-----------------|-----------------|------------------|--------------------|-
-|*---------------*|*---------------*|------------------|--------------------|-
-|-----------------|-----------------|------------------|--------------------|-
-|-----------------|-3-3-3-3-3-3-3-3-|------------------|--------------------|-
-|*3-3-3-3-3-3-3-3*|*1-1-1-1-1-1-1-1*|-5-55-5-5-5-5-5-5-|-6-6-6-6-6-6-6-6----|-
-|-1-1-1-1-1-1-1-1-|-----------------|-3-33-3-3-3-3-3-3-|-4-4-4-4-4-4-4-4----|-
Riff 3

-|-------------------|-------------|-----------------|------------|------------
-|*-----------------*|-------------|*---------------*|*----------*|------------
-|-------------------|-------------|-------------12--|------------|------------
-|-------------------|-------------|-------------13--|-6-6----6-6-|------------
-|*-3-3-3-3-3-3-3-3-*|-------------|*---------------*|*4-4----4-4*|------------
-|--1-1-1-1-1-1-1-1--|-------------|-----------------|------------|------------
Repeat Riff 3 Riff 4 x4 x4

-|------------------------|--------------------------------------------------|-
-|------------------------|--------------------------------------------------|-
-|------------------------|--------------------------------------------------|-
-|------------------------|--------------------------------------------------|-
-|------------------------|--------------------------------------------------|-
-|------------------------|--------------------------------------------------|-
Repeat Intro w/fills 2&4 Bass Solo w/piano fill 1

-|-----------------------------|-----------------------|---------------------|-
-|-18vvvvvvvvvvv---------------|-----------------------|-------------/18-----|-
-|---------------12vvvv-13vvvv-|-15b17r15bb17r15vvvv-13|----------13---------|-
-|-----------------------------|-----------------------|15vvv-/15------------|-
-|-----------------------------|-----------------------|---------------------|-
-|-----------------------------|-----------------------|---------------------|-
Guitar Solo

-|-----------------------------|---------------------------------------------|-
-|-----------------------------|---------------------------------------------|-
-|-20b22vv-20b22vv-20p17-15p13-|--------------------------------------13-15--|-
-|-----------------------------|-15p13--------------------------13-15--------|-
-|-----------------------------|-------15pp13-------------13-15--------------|-
-|-----------------------------|--------------16p13-13-16--------------------|-


-|--------------------------|-----------------------|------------------------|-
-|-------------16-----------|-16-16-----------------|------------------------|-
-|-15b17r15b17----15vvvvvvv-|----15b17r15bb17r15vvvv|20b22-------------------|-
-|--------------------------|-----------------------|------------------------|-
-|--------------------------|-----------------------|------------------------|-
-|--------------------------|-----------------------|------------------------|-
hold bend

-|---------------------------------------------------------------------------|-
-|---------------------------------------------------------------------------|-
-|---------------------------------------------------------------------------|-
-|---------------------------------------------------------------------------|-
-|---------------------------------------------------------------------------|-
-|---------------------------------------------------------------------------|-
Repeat Riff 4 to end

-|----------------------------|----------------|---------------|---------------
-|----------------------------|----------------|-20*21vvvvvvvv-|---------------
-|-20b22--20b22--20b22--20b22-|-8/10-13-133vvv-|---------------|-15b17r15p13---
-|----------------------------|----------------|---------------|---------------
-|----------------------------|----------------|---------------|---------------
-|----------------------------|----------------|---------------|---------------
Fill 3 Fill 4 Trill

---------------|-3-1-3-1-3-1-3-1-|-3-1-3-11-3-1-3-1--------------------------|-
---------------|-1-1-1-1-1-1-1-1-|-2-2-2-22-2-2-2-2--------------------------|-
---------------|-----------------|-------------------------------------------|-
-15vvvvvvvvvvv-|-----------------|-------------------------------------------|-
---------------|-----------------|-------------------------------------------|-
---------------|-----------------|-------------------------------------------|-
Piano Fill 1
Но если и музыка нас оставит, что будет тогда с нашим миром? (Гоголь)
Мы стремимся к созданию контента, соответствующего всем нормам законодательства и уважающего интеллектуальную собственность. Мы также придаем большое значение тому, чтобы не задеть никого и не оскорбить чьи-либо чувства. Если у вас есть вопросы или претензии по размещенному материалу, пожалуйста, сообщите нам об этом.
Шрифт
-
0
+
Прокрутка
-
0
+
Стоп
Наверх