Аккорды Агата Кристи - Опиум для никого

Добавлено: @romashka
Дата добавления: 16 Марта 2013г.
Рейтинг:
0.0
Просмотров: 702
Транспонировать - +
Cm
Я крашу губы гуталином,
  B       G
Я обожаю черный цвет
   B
И мой герой, он соткан весь
    Fm         G
Из тонких запахов конфет.
   Cm
Напудрив ноздри кокаином,
   B          G
Я выхожу на променад,
    B
И звёзды светят мне красиво,
   Fm        G
И симпатичен ад.

   Cm
    Давай вечером с тобой встретимся
   B               G
    Будем опиум курить-рить-рить.
   Cm
    Давай вечером с тобой встретимся
   B                 G
    По-китайски говорить.
   Cm
    Не прячь музыку - она опиум
      B          G
    Для никого, только для нас.
   Cm
    Давай вечером умрем весело,
   B                G
    Поиграем в декаданс.

Убей меня, убей себя,
Ты не изменишь ничего:
У этой сказки нет конца
Ты не изменишь ничего.
Накрась ресницы губной помадой,
А губы лаком для волос
Ты будешь - мёртвая принцесса,
А я - твой верный пёс.

Опиум [tabs]

Модный такой заход.                            Промеж куплету и
         Cm                                    припеву.
E|--------8------------------------------------|-----3---3---3-|
B|----7-8--------------------------------------|-----3---3---3-|
G|----------------5-----5-------5------5-.....-|---------------|
D|---------------------------------------------|---------------|
A|---------------------------------------------|---------------|
E|---------------------------------------------|---------------|

  Время от времени появляется такое вот нечто:

E|----13-12-11-|
B|-------------|
G|-------------|
D|-------------|
A|-------------|
E|-------------|

  И еще вот:

E|----------|
B|----6-5-4-|
G|----------|
D|----------|
A|----------|
E|----------|

  А теперь...

  Соло. Соблюдены длительности
 G       Cm
   4 и   1 и 2 и 3 и 4   1 и 2 и 3 и 4 и    1 и 2 и 3 и 4 и
E|------|---------------|-----------------|------------------|
B|--6-5-|-4-------------|(4)--П-----------|-78----78------78-|
G|------|---------------|-----а-----------|------------------|
D|------|---------------|-----у-----------|------------------|
A|------|---------------|-----з-----------|------------------|
E|------|---------------|-----а-----------|------------------|

                     Gm/Bb
   1 и 2 и 3 и 4 и   1 и 2 и 3 и 4 и
E|------------------|-10--------------|
B|-(8)----------6-8-|------78------78-|
G|------------------|-----------------|
D|------------------|-----------------|
A|------------------|-----------------|
E|------------------|-----------------|

                     Bb
  1 и 2 и 3 и 4 и    1 и 2  и 3 и 4 и
E|-----------------|-------1011--------|
B|(8)--------------|-89-------------89-|
G|-----------------|-------------------|
D|-----------------|-------------------|
A|-----------------|-------------------|
E|-----------------|-------------------|

                     Fm7
  1 и 2 и 3 и 4 и    1 u 2 u 3 u 4 u
E|(4)----------3-4-|1011--------------|
B|-----------------|---------89-------|
G|-----------------|------------------|
D|-----------------|------------------|
A|-----------------|------------------|
E|-----------------|------------------|

  G7                Cm
  1 u 2 u 3 u 4 u   1 u 2 u 3 u 4 u
E|-----------------|------------------|
B|78---------------|-8-/gliss/---17---|
G|-----------------|-8-/gliss/-----21-|
D|-----------------|------------------|
A|-----------------|------------------|
E|-----------------|------------------|

                    Gm/Bb
  1 u 2 u 3 u 4 u   1 u 2 u 3 u 4 u
E|-------------8---|810------10----10-|
B|(17)-------------|------------------|
G|-----------------|------------------|
D|-----------------|------------------|
A|-----------------|------------------|
E|-----------------|------------------|

                   Bb
  1 u 2 u 3 u 4 u   1 u 2 u 3 u 4 u
E|(10)---------6---|-8-------8----68-|
B|-----------------|-----------------|
G|-----------------|-----------------|
D|-----------------|-----------------|
A|-----------------|-----------------|
E|-----------------|-----------------|

                    Fm
  1 u 2 u 3 u 4 u   1 u 2 u 3 u 4 u
E|(8)----------6-8-|-15------13------|
B|-----------------|-----------------|
G|-----------------|-----------------|
D|-----------------|-----------------|
A|-----------------|-----------------|
E|-----------------|-----------------|

   G
  1 u 2 u 3 u 4 u   1 u 2 u 3 u 4 u
E|-----------------|----------------|
B|-----------------|----------------|
G|-----------------|----------------|
D|-12--------------|-5/glissando/17-|
A|-------------6-8-|----------------|
E|-----------------|----------------|

 В последнем припеве такие соляки:
                    Gm/Bb             G                 Cm
 c тобой встретимся 1 u 2 u 3 u 4 u   1 и 2 и 3 и 4 и   1
E|-----------------|-----------------|-----------------|---|
B|-----------------|-3---------------|-------------6-5-|-4-|
G|-----------------|---------------0-|(0)--------------|---|
D|-----------------|-----------------|-----------------|---|
A|-----------------|-----------------|-----------------|---|
E|-----------------|-----------------|-----------------|---|

                    Gm/Bb             G                 Cm
 с тобой встретимся 1 u 2 u 3 u 4 u   1 u 2 u 3 u 4 u   1
E|-----------------|-3---------------|-----------------|---|
B|-----------------|---------------3-|(3)----------6-5-|-4-|
G|-----------------|-----------------|-----------------|---|
D|-----------------|-----------------|-----------------|---|
A|-----------------|-----------------|-----------------|---|
E|-----------------|-----------------|-----------------|---|

                    Gm/Bb             G                 Cm
 умрем весело       1 u 2 u 3 u 4 u   1 и 2 и 3 и 4 и   1
E|-----------------|-3---------------|-----------------|---|
B|-----------------|---------------3-|(3)----------6-5-|-4-|
G|-----------------|-----------------|-----------------|---|
D|-----------------|-----------------|-----------------|---|
A|-----------------|-----------------|-----------------|---|
E|-----------------|-----------------|-----------------|---|
Наверх