Аккорды Александр Малинин - Венчание

Добавлено: @vitos
Дата добавления: 21 Апреля 2013г.
Рейтинг:
0.0
Просмотров: 641
Транспонировать - +
 Вступление 
* Dm
e----------1-------0-------1-----------0-----1----0-------------
B------3----3-------3-------3-------3---3----3----3-------------
G----2--------2-------2-------2---2------2-----2---2------------
D—0----------------------------0--------------------------------
A---------------------------------------------------------------
E---------------------------------------------------------------


Dm                  Dm /F            Gm-(перебор)**               
Ты помнишь, как смотрела божья мать,
E7        Dm-***
На нас с тобой в огромном, белом храме.
Dm-Dm/F                              Gm- (перебор)**
Я до сих пор не в силах осознать,
C    F
Что в этот миг, происходило с нами.
Gm    Dm-Dm/F
И ангелы запели нам вослед,
Gm                        Dm
Родное повторяя имя. 
C        F
И чистый, несказанный свет, 
Gm       Dm-*** -Dm --*
Нас всех окутал тайнами своими.


    Dm/F        Gm             C                    F
    Венчание, венчание, судьбы моей избрание
    Gm                       Em            Dm-Dm-Dm (перебор)*
    Сердца нашли и радость и покой. 
    Dm            Gm            C                 F
    Венчание, венчание, души моей желание
    Gm              E7                              Dm- - -*
    Я так хочу, всю жизнь прожить с тобой.


Dm-Dm/F                        Gm
И проплывали в памяти года.
Em                                       Dm
И сердце билось с верой и надеждой.
Dm         Dm/F                Gm-Gm-Gm (перебор)**
Не знал такого чувства никогда.
C                                   F
И счастья,  неземного прежде.
Gm                                     Dm-Dm/F
И стены храма взмыли в небеса,
Gm                                     Dm-Dm-Dm*
Как  лики плыли облака седые
С                               F
И я, смотрю в твои глаза. 
И мы с тобою вечно молодые. 


    Dm/F                          Gm                 C
    Венчание, венчание, судьбы моей избрание
    Gm                      Em            Dm-Dm-Dm
    Сердца нашли и радость и покой
    Dm            Gm           C                  F   
    Венчание, венчание, души моей желание 
    Gm                     Em                    
    Я так хочу всю жизнь прожить с тобой.


Dm                  Dm/F              Gm (перебор)**
Ты помнишь, как смотрела божья мать. 
E7              Dm
На нас с тобой в огромном белом храме.
Dm                Dm/F         Gm
Она хотела нас с тобой обнять.
Чтобы была любовь навеки с нами. 


 Gm
**   e--------3--------------------------------
     B------3--3-------3----3------------------
     G-----3----3---3----3---------------------
     D------------4----5-----------------------
     A-----------------------------------------
     E-----3-----------------------------------

***  e-----------------------------------------
     B----------0-------0----------------------
     G--------0-------0------------------------
     D-----------------------------------------
     A----2--------4---------------------------
     E-----------------------------------------
comments powered by Disqus
Наверх