Аккорды Александр Малинин - Цвiте терен

Добавлено: @vitos
Дата добавления: 19 Октября 2016г.
Рейтинг:
0.0
Просмотров: 482
Транспонировать - +
Вступление:
  Cm             Cm/B             Fm                 G                          
E|----------3---------------3-------------1-------------------3---------------|
H|------4---------------4---------------1---1-------------3-------------------|
G|----5---5---5-------5---5---5-------1-------1---------4---4---4-------------|
D|----------------------------------------------------------------------------|
A|-3--------------------------------------------------------------------------|
E|-----------------6---------------1-----------------3------------------------|
 
E|----------3---------------3-------------1---------------------7--10--13-----|
H|------4---------------4---------------1---1--------3--4--6----6---9--12-----|
G|----5---5---5-------5---5---5-------1-------1------4--5--7----7--10--13-----|
D|----------------------------------------------------------------------------|
A|-3--------------------------------------------------------------------------|
E|-----------------6---------------1-----------------3------------------------|


 Cm            G   Cm    
Цвіте терен, цвіте терен, 
    Cm   Fm   G  Cm  B 
Листя опада-а-є
 D#           B    G     
Хто в любові не знається, 
  Cm    Fm      G  Cm  B
Той горя не зна-a-є,
 D#           B    G     
Хто в любові не знається, 
Cm    Fm      G  Cm
Той горя не зна-a-є

А я молода дівчина, 
Та й горя зазна-а-ла
Вечероньки не доїла, 
Нічки не доспа-а-ала,
Вечероньки не доїла, 
Нічки не доспа-а-ла


Проигрыш: Cm  Cm/B  Fm  G - 2 раза


Візьму в руки кріселечко, 
Сяду край віко-о-нця
Іще очі не дрімали, 
А вже сходить со-о-нце,
Іще очі не дрімали, 
А вже сходить со-о-нце


-Переход на 1 тон (на 2 лада) выше (Dm)-

Dm             A    Dm    
Хоч дрімайте, не дрімайте, 
   Dm   Gm     A   Dm  C
Не будете спа-a-ти
 F           C     A     
Десь поїхав мій миленький 
  Dm  Gm    A   Dm  C
Iньшої шука-a-ти,
 F           C     A     
Десь поїхав мій миленький 
Dm  Gm    A   Dm
Iньшої шука-a-ти

Цвіте терен, цвіте терен, 
Листя опада-а-є
Хто в любові не знається, 
Той горя не зна-а-є,
Хто в любові не знається, 
Той горя не зна-а-є


Окончание: Gm  A  Dm
comments powered by Disqus
Наверх