Аккорды Александр Новиков - Любимая моя

Добавлено: @vitos
Дата добавления: 29 Ноября 2016г.
Рейтинг:
0.0
Просмотров: 2 198
Транспонировать - +
  Cm     Fm6  G          Cm Cm7   Ab   Fm6 G          
e|------------------------------------------------------------------
H|----6/8--9--6----6-6-6-6-8-4---3------3--6-3----3-4---------------
G|--5--------------------------------/5---------------5-4-5-7-------
D|---------10-6----6-6-6-6-8-5--3----------6-3----3-5---------------
A|----------------------------------------------------6-5-6-8-------
E|------------------------------------------------------------------


 Cm              Fm6
То сорвусь к земле, то парю
    G               Cm         
Как в сюжетах из пришлых снов.
              Fm6
Про любовь тебе говорю,
 G           Cm         
А хватило бы двух слов.

           Fm
Оторвать не могу глаз,
  B7            Eb   G
И кружится от них голова.
Cm              Fm6
Говорю в сотый раз про нас,
    G           Cm         
А слов-то нужно всего два.


Fm6  G         Cm
Любимая... Любимая моя.
    Cm7   Ab  Fm6 G          Cm       
          Любимая...     Любимая моя.


Про разлуку ни слова, чур -
Это давняя наша боль.
Я с тобой говорить хочу
Про любовь. Про любовь.

А выходит почти роман,
Почитаешь - захватит дух.
А рассыплется слов туман -
Так хватило бы только двух.


Любимая... Любимая моя.
Любимая... Любимая моя.


И останется тихой ночь,
Чтобы утро вдвоем начать,
А слова ни к чему, их - прочь! -
Про любовь лучше им молчать.

Тишина моя, тишина,
Как я много сказать хотел.
Только буква одна нужна -
Ласкогубая буква «л».


Любимая... Любимая моя.
Любимая... Любимая моя.


  Cm             Fm6  G              Cm    Cm7
e|-------------------------------------------------------
H|---------------------------------------4-3-4-----------
G|--------------75-8--7h8h7-5-4-------------------------
D|------------5------------------6-3-5---5-3-5-----------
A|------3h5-6--------------------------------------------
E|--1h3--------------------------------------------------

  Ab       Fm6             G
e|-----------------------------------7-8-10--------------
H|--8-8-86-4-4-3-31-1----------------------------------
G|-------------------------/5-4-4----7-8-10--------------
D|--8-8-86-5-5-3-32-2----------------------------------
A|-------------------------------------------------------
E|-------------------------------------------------------


Любимая... Любимая моя.
Любимая... Любимая моя.
Любимая... Любимая моя.
Любимая... Любимая моя.
Наверх