Аккорды Александр Пушной - Тонкая рябина

Добавлено: @romashka
Дата добавления: 05 Сентября 2016г.
Рейтинг:
0.0
Просмотров: 643
Транспонировать - +
E||-----0---------0--------0------------0----| 
B||-----0---------0--------5------------8----| 
G||-------0---------0----6---6-------9----9--| 
D||---9--------12------7---------10----------| 
A||-7-------10-------------------------------| 
E||------------------------------------------| 
 
E||-----0---------0--------0------------0----| 
B||-----0---------0--------5------------0----| 
G||-------0---------0----6---6-------5----5--| 
D||---9--------7------7---------7------------| 
A||-7-------5--------------------------------| 
E||------------------------------------------| 
 
Что стоишь, качаясь, 
Тонкая рябина, 
Головой склоняясь 
До самого до тына. 
 
А через дорогу, 
За рекой широкой 
Так же одиноко 
Дуб стоит высокий. 
 
 Em              G
Как бы мне, рябине, 
 A               C
К дубу перебраться. 
 Em              D
Я б тогда не стала 
 A               Am
Гнуться и качаться. 
 
 Em           G
Тонкими ветвями 
 A                C
Я б к нему прижалась 
 Em           D
И с его листами 
 A                 Am
День и ночь шепталась. 
 
 G
Но нельзя рябине 
 D
К дубу перебраться, 
 Am
Знать, ей, сиротине, 
 G                D
Век одной качаться. 
 
 G
Что стоишь, качаясь, 
 D
Тонкая рябина, 
 Am
Головой склоняясь 
 G              B7
До самого до тына.
Наверх