Аккорды Александр Васильев - Небо в алмазах

Добавлено: @romashka
Дата добавления: 30 Января 2019г.
Рейтинг:
0.0
Просмотров: 60
Транспонировать - +
  Dm              F          
Где ты была эти дни и недели, 
    Am
куда указала лоза?..
  Dm                 F     
Кто согревал твое в камень 
           Am
замерзшее сердце?
    Dm               F          
Я знаю - во время великого плача 
    Am
остались сухими глаза
   Bb                      
У тех, кто звонил нам домой 
                  Am
и сулил нам бессмертье...

  Dm              F         
Господь дал нам маковый цвет, 
     Am
дал нам порох, дал имя - одно двоих,
  Dm              F              Am
И запеленал нас в узоры чугунных решеток,
  Dm              F       
И стало светло, как бывает 
       Am
когда в самых недрах рождается стих,
   Bb                         G                          
И кто-то с любовью помянет кого-то

Припев:
C Am C       Am         Fmaj7                 
О, хлопок и лен, сколько лет прошло,
                             Am 
тот же свет из волшебного глаза
C Am C       Am         Fmaj7                    
О, ивы и клен, мы смотрим друг на друга, 
                         Am 
а над нами все небо в алмазах...

  Dm              F              Am
Да где ты была? - я собрал все оружие 
Am
в самый дырявый мешок,
  Dm              F              Am
И вынес туда, где по-прежнему верят приметам,
  Dm              F            
А здесь даже дети умеют вдыхать 
  Am
этот белый, как снег, порошок,
    C                         G     
И дышат на стекла, и пишут, что выхода нет

Припев:
C Am C       Am         Fmaj7                 
О, хлопок и лен, сколько лет прошло,
                             Am 
тот же свет из волшебного глаза
C Am C       Am         Fmaj7                    
О,   ивы и клен, мы смотрим друг на друга, 
                         Am 
а над нами все небо в алмазах...

              Bb
Все небо в алмазах,
          Am
небо в алмазах...

Вступление:
Am
E|---------------0------------------|
B|-------0h1-----------0------------|
G|-----2-------2-----2-----2--------| x3
D|---2-------2-----2-----2----------|
A|-0--------------------------------|
E|----------------------------------|

   Am
E|---------------0------------------|
B|-------0h1------------------------|
G|-----2-------2--------------------|
D|---2-------2----------------------|
A|-0--------------------------------|
E|----------------------------------|

Куплет:
   Dm             F            Am       
E|-------1-----------------------------------0-------------|
B|-----3-----3----------1------------0h1-----------0-------|
G|---2-----2----------2-----2------2-------2-----2-----2---| x3
D|-0----------------3-----3------2-------2-----2-----2-----| 
A|-----------------------------0---------------------------|
E|----------------1----------------------------------------|

   Bb                          Am       
E|-------0-----0-----0-----------------------0-------------|
B|-----3-----3-----3-----3-----------0h1-----------0-------|
G|---3-----3-----3-----3-----------2-------2-----2-----2---| 
D|-0-----------------------------2-------2-----2-----2-----| 
A|-----------------------------0---------------------------|
E|---------------------------------------------------------|

  Dm             F            Am       
E|-------1-----------------------------------0-------------|
B|-----3-----3----------1------------0h1-----------0-------|
G|---2-----2----------2-----2------2-------2-----2-----2---| x3
D|-0----------------3-----3------2-------2-----2-----2-----| 
A|-----------------------------0---------------------------|
E|----------------1----------------------------------------|

   Bb                          G       
E|-------0-----0-----0-------------------------------------|
B|-----3-----3-----3-----3-----------0-----0-----0---------|
G|---3-----3-----3-----3-----------0-----0-----0-----0-----| 
D|-0-----------------------------0-----0-----0-----0-------| 
A|---------------------------------------------------------|
E|-----------------------------3---------------------------|

Припев:
   С      Am    C     Am      Fmaj7                    Am
E|----------------------------------0-----0-----0--------------------0-----------|
B|--------------------------------1-----1-----1-----1--------0h1-----------0-----|
G|-----0------3-----0-----3-----2-----2-----2-----2--------2-------2-----2-----2-| x2
D|---2------3-----2-----3-----3--------------------------2-------2-----2-----2---| 
A|-3------0-----3-----0--------------------------------0-------------------------|
E|-------------------------------------------------------------------------------|

Конец:
 Bb                          Am       
E|-------0-----0-----0-----------------------0---|
B|-----3-----3-----3-----3-----------0h1---------|
G|---3-----3-----3-----3-----------2-------2-----| 
D|-0-----------------------------2-------2-------| 
A|-----------------------------0-----------------|
E|-----------------------------------------------|
comments powered by Disqus
Наверх