Аккорды Альфа - Гуляка

Добавлено: @romashka
Дата добавления: 24 Декабря 2021г.
Рейтинг:
0.0
Просмотров: 32
Транспонировать - +
Вступление
|9-7------------------------------------|
|----9-5--7-8-7---7-------------------|
|-----------------9---6-8-9-8-9-8-4--|
|----------------------------------------|
|----------------------------------------|
|----------------------------------------|

C#m 4x

C#m
Я обманывать себя не стану,
F#m                        C#m
Залегла забота в сердце мглистом.
C#m
Отчего прослыл я шарлатаном?
F#m                      C#m
Отчего прослыл я скандалистом?
F#m                     C#m
Не злодей я и не грабил лесом,
F#m                        C#m
Не стрелял в несчастных по темницам.
F#m                      C#m
Я всего лишь уличный повеса,
G#                    C#m
Улыбающийся встречным лицам.

Я ношу цилиндр не для женщин
В глупой страсти сердце жить не в силе
В нем удобней грусть свою уменьшив
Золото овса давать кобыле

Средь людей я дружбы не имею
Я иному покорился царству
Каждому здесь кобелю на шею
Я готов отдать мой лучший галстук

D#m 2x

D#m    
Я московский озорной гуляка
G#m                       D#m
По всему Тверскому околотку
D#m
В переулках каждая собака
G#m                D#m
Знает мою легкую походку

G#m                    D#m
Каждая задрипанная лошадь
G#m                    D#m
Головой кивает мне навстречу
G#m                      D#m
Для друзей приятель я хороший
A#
Каждый стих мой душу зверю лечит

|9-7------------------------------------|
|----9-5--7-8-7---7-------------------|
|-----------------9---6-8-9-8-9-8-4--|
|----------------------------------------|
|----------------------------------------|
|----------------------------------------|
Здесь напевайте цыплёнка жаренного с этими аккордами

D#m 4x  A#4x D#m 4x  G#m 2x  D#m 2x  A# 2x


Я московский озорной гуляка
По всему Тверскому околотку
В переулках каждая собака
Знает мою легкую походку

Я московский озорной гуляка
По всему Тверскому околотку
В переулках каждая собака
Знает мою легкую походку

|9-7------------------------------------|
|----9-5--7-8-7---7-------------------|
|-----------------9---6-8-9-8-9-8--4-6-|
|----------------------------------------|
|----------------------------------------|
|----------------------------------------| 

Шестёрка, бас удар. 
Наверх