Аккорды Apocalyptica - Master of Puppets

Добавлено: @romashka
Дата добавления: 16 Марта 2013г.
Рейтинг:
0.0
Просмотров: 609
E|--12-12-12-9-9-----9-9-9-11-12----------9-11-12-11-9-7-12-11-|
B|-------------------------------------------------------------|
G|-------------------------------------------------------------|
D|-------------------------------------------------------------|
A|-------------------------------------------------------------|
E|-------------------------------------------------------------|

“End of passion play……………………”

E|--12-12-12---12---12----------12-12-12---12---12---------12-12-12---12---12-|
B|----------------------------------------------------------------------------|
G|----------------------------------------------------------------------------|
D|----------------------------------------------------------------------------|
A|----------------------------------------------------------------------------|
E|----------------------------------------------------------------------------|

“taste me you will see………”

E|---11-12-11-----11-12-|
B|----------------------|
G|----------------------|
D|----------------------|
A|----------------------|
E|----------------------|

“Obey your master”

E|---11-12-11-----11-9----===-|
B|----------------------------|
G|----------------------------|
D|----------------------------|
A|----------------------------|
E|----------------------------|
“come crawling faster”

E|-9-9-9-9-11p-9----9-12-|
B|-----------------------|
G|-----------------------|
D|-----------------------|
A|-----------------------|
E|-----------------------|

“master of Puppets im pulling your strings”

E|-9-9-9-9-11p-9----9-9-|
B|----------------------|
G|----------------------|
D|----------------------|
A|----------------------|
E|----------------------|

“twisting your minds smashing your dreams”

E|-14-14-14-14------12-12-12-11-|
B|--------------14--------------|
G|------------------------------|
D|------------------------------|
A|------------------------------|
E|------------------------------|
“just call my name and ill hear you scream”

E|------9-9-----9-10-|
B|-------------------|
G|-------------------|
D|-------------------|
A|-------------------|
E|-------------------|

|Master, Master"
Музыка не только фактор облагораживающий, воспитательный. Музыка – целитель здоровья (Бехтерев)
Мы стремимся к созданию контента, соответствующего всем нормам законодательства и уважающего интеллектуальную собственность. Мы также придаем большое значение тому, чтобы не задеть никого и не оскорбить чьи-либо чувства. Если у вас есть вопросы или претензии по размещенному материалу, пожалуйста, сообщите нам об этом на указанный адрес электронной почты: [email protected].
Шрифт
-
0
+
Прокрутка
-
0
+
Стоп
Наверх