Аккорды Apocalyptica - Seemann

Добавлено: @romashka
Дата добавления: 16 Марта 2013г.
Рейтинг:
0.0
Просмотров: 630
tuning: f a# d# g# c f

intro and verse:


-----------------------------------------------------------------------
-----------------------------------------------------------------------
-----------------------------------------------------------------------
------12---------10-----------8----------7---------5---------5---------
---0------0---0------0-----0-----0----0-----0---0-----0---0-----0------
-0----------0-----------0-----------0---------0---------0---------0----


-----------------------------------------------------------------------
-----------------------------------------(0)---------------------------
-----------------------------2------------1----------------------------
------7---------7--------------------------------------4------------2--
---0-----0---0-----0------2------2-----2------2-----2------2-----2-----
-0---------0----------2-------------2------------2------------2--------

its the same sequence but you have to change to the other string. got it?

and here is the finifh of the intro and the verse
-------------------------------------------
-------------------------------------------
-------------------------------------------
-------------------------------------------
------5-------4--------5--------5-------------------
-000-----000-----000------000------0-----------------

the intro is easy and here is the rest of the song:

bridge between the verse and the chorus:

//repeat them constantly

-----------------------------
-----------------------------
-12//-14//-12//-14//-12//----
-12//-14//-12//-14//-12//----
-10//-12//-10//-12//-10//----
-----------------------------

(not sure of this)
go repeating this with the rithm of the bridge.
it wont sound like the song beacuse this one has other instruments.

chorus:


Jetzt stehst du da an der Laterne...
---------------------------------------------
---------------------------------------------
---------------------------------------------
-12//-10//-8//-7//---------------------------
-12//-10//-8//-7//---------------------------
-10//--8//-6//-5//---------------------------

the same, go playingit with the rythm.
and if you have doubts about this, just try to sing it too and
you?ll see this is right.

and the bridge between the chorus and the next verse:

------------------
------------------
------------------
-10////-----------
-10////-----------
-8/////-----------

... follow the rythm.
Музыка глушит печаль (Шекспир)
Мы стремимся к созданию контента, соответствующего всем нормам законодательства и уважающего интеллектуальную собственность. Мы также придаем большое значение тому, чтобы не задеть никого и не оскорбить чьи-либо чувства. Если у вас есть вопросы или претензии по размещенному материалу, пожалуйста, сообщите нам об этом.
Шрифт
-
0
+
Прокрутка
-
0
+
Стоп
Наверх