Аккорды Apulanta - Pala Siitä

Добавлено: @romashka
Дата добавления: 14 Мая 2024г.
Рейтинг:
0.0
Просмотров: 12
[Intro]
                                   F5  D#5 C#5                             C5
D# |-------------------------------------|-------------------------------------|
A# |-------------------------------------|-------------------------------------|
F# |-------------------------------------|-------------------------------------|
C# |------------------11-----------------|------------------11-----------------|
G# |----9-11-12---9--------12---11---9---|----9-11-12---9--------12---11---9---|
D# |9-----------9---9----9----9----9---12|9-----------9---9----9----9----9---12|
A# |-------------------------------------|-------------------------------------|

    A#5                                      F5
D# |------------------14--------------------|--------------------------------------|
A# |-----------------------15---14----------|--------------------------------------|
F# |------------------11---------------14---|--------------------------------------|
C# |-----------------------12---11----------|--------------------------------------|
G# |----9-11-12---9--------------------12---|----9-11-12---9--------12---11--------|
D# |9-----------9---9-----------------------|9-----------9---9----9----9----9-12-9-|
A# |----------------------------------------|--------------------------------------|

Fm                 C#
Onko parempi antaa olla, kuin yrittää ottaa
Fm                     C#
kiinni kaikista niistä kuvista, jotka ohitse virtaa?
A#m                     D#
Ne parantaa, mut nälkää kasvattaa

Fm
Kaukana siltä reitiltä
      C#
Jolle lähdettiin valo silmissä
     A#m
Joku muutti sen
                              D#                 D#5 C#5 C5
Vaikka nään mitä teen juoksen taas tanssien miinakentälle

[Chorus]

F5                              F5 D#5
Pala siitä mistä meidät luotiin
C#5                               C#5 C5
Painaa enemmän kuin oli tottakaan
A#5                           D#5
Pelottavinta kun silmät aukaistaan

2.säkeistö
Fm
Naamiot on meitä varten
C#                                A#m                     D#
Joilla on sellaiset arvet, joiden kertomaa ei tahdo kuuluttaa
Fm                            C#
Helppoa oli kääntää pää kohti kaikkea, mikä vaan kiiltää
       A#m                                      D#                 D#5 C#5 C5
Kaiken jälkeenkin vaikka nään mitä teen juoksen taas tanssien miinakentälle

Kertsi:
F5                              F5 D#5
Pala siitä mistä meidät luotiin
C#5                               C#5 C5
Painaa enemmän kuin oli tottakaan
A#5                           D#5
Pelottavinta kun silmät aukaistaan

[Solo]

D# |---------------------------------------------------------|
A# |---------------------------------------------------------|
F# |---------------------------------------------------------|
C# |7-6-----4--7-6-----4---4---------------------------------|
G# |----7-4--------7-4-------7---4---5-5-4-5---4---5-5-4-5---|
D# |---------------------------------------------------------|
A# |---------------------------------------------------------|

D# |-------------------------------------------------------------|
A# |-------------------------------------------------------------|
F# |-------------------------------------------------------------|
C# |7-6-----4--7-6-----4---4-------------------------------------|
G# |----7-4--------7-4-------7---4---5-5-4-5---4---5-5-4-5---7---|
D# |-------------------------------------------------------------|
A# |-------------------------------------------------------------|

Terssisoitanto loppuu tähän

    F5                                 D#5   C#                            C5
D# |----------------------------------------|----------------------------------------|
A# |--------------------14------------------|--------------------14------------------|
F# |----11-13-14---11--------14---13---11---|----11-13-14---11--------14---13---11---|
C# |11--------------------------------------|11--------------------------------------|
G# |----------------------------------------|----------------------------------------|
D# |----------------------------------------|----------------------------------------|
A# |----------------------------------------|----------------------------------------|

    A#5                                      F5                             C#5 C5
D# |--------------------14------------------|---------------------------------------|
A# |-------------------------15---14---12---|--------12-13---12---------------------|
F# |----11-13-14---11-----------------------|13---14--------------14---13-----------|
C# |11--------------------------------------|-------------------------------12-11---|
G# |----------------------------------------|---------------------------------------|
D# |----------------------------------------|---------------------------------------|
A# |----------------------------------------|---------------------------------------|

Kertsi:
F5                              F5 D#5
Pala siitä mistä meidät luotiin
C#5                               C#5 C5
Painaa enemmän kuin oli tottakaan
A#5                           D#5
Pelottavinta kun silmät aukaistaan

F5                              F5 D#5
Pala siitä joka oli taivas
C#5                               C#5 C5
Tarkoitettu meidät vielä täyttämään
A#5                           D#5
Painaa enemmän kuin jaksamme kantaa

D# |---------------------|
A# |---------------------|
F# |---------------------|
C# |7-6-----4--7-6-----4-|
G# |----7-4--------7-4---|
D# |---------------------|
A# |---------------------|
Музыка не только фактор облагораживающий, воспитательный. Музыка – целитель здоровья (Бехтерев)
Мы стремимся к созданию контента, соответствующего всем нормам законодательства и уважающего интеллектуальную собственность. Мы также придаем большое значение тому, чтобы не задеть никого и не оскорбить чьи-либо чувства. Если у вас есть вопросы или претензии по размещенному материалу, пожалуйста, сообщите нам об этом.
Шрифт
-
0
+
Прокрутка
-
0
+
Стоп
Наверх