Аккорды «Ария»

Ария
«Ария» — российская группа, играющая в стиле метал. Музыка «Арии» выдержана в стиле групп «новой волны британского хеви-метала». «Ария» является одной из старейших и самых успешных метал-групп России. Лауреат премии Fuzz 2007 года как лучшая live-группа. Её участниками были образованы многие другие известные группы («Мастер», «Кипелов», «Маврик», «Артерия»), которые вместе составляют плеяду, называемую «семейка "Арии"». Предыстория Будущие музыканты «Арии» Виталий Дубинин и Владимир Холстинин… Читать полностью... «Ария» — российская группа, играющая в стиле метал. Музыка «Арии» выдержана в стиле групп «новой волны британского хеви-метала». «Ария» является одной из старейших и самых успешных метал-групп России. Лауреат премии Fuzz 2007 года как лучшая live-группа. Её участниками были образованы многие другие известные группы («Мастер», «Кипелов», «Маврик», «Артерия»), которые вместе составляют плеяду, называемую «семейка "Арии"». Предыстория Будущие музыканты «Арии» Виталий Дубинин и Владимир Холстинин познакомились во время учёбы в МЭИ, где создали любительскую рок-группу «Волшебные сумерки». Дубинин поначалу был поющим басистом, потом на роль вокалиста был приглашён Артур Беркут. В 1982 году Дубинин покинул группу, чтобы закончить образование. Вскоре Беркут получил приглашение на место вокалиста в популярной арт-рок-группе «Автограф», и «Волшебные сумерки» распались. Холстинин вместе с бас-гитаристом Аликом Грановским стали участниками группы «Альфа», исполнявшей хард-рок. Группа просуществовала всего несколько лет. В период борьбы с самодеятельными коллективами в 1982-84 гг., музыканты вынуждены были искать работу в официальных ВИА. Холстинин, Дубинин и Грановский присоединились к ВИА «Поющие сердца» в 1985 году. Туда же из распавшегося ВИА «Лейся песня» перешёл Валерий Кипелов. Дубинин покинул «Поющие сердца» спустя несколько месяцев, чтобы учиться на вокалиста в Академии им. Гнесиных. Ранняя история Играя в «Поющих сердцах», Холстинин и Грановский параллельно создали сайд-проект: группу, которая должна была исполнять хеви-метал. Менеджером и художественным руководителем нового коллектива стал Виктор Векштейн, директор «Поющих сердец», который предоставил музыкантам свою студию. Название группы придумал Холстинин, выбрав его наугад как удобно переводящееся в латиницу. Также, по одной из версий, немаловажным фактом при выборе названия стала легкость его скандирования. Благодаря этому музыкантов и поклонников группы впоследствии стали называть «арийцами». Векштейн, Холстинин и Грановский начали подбирать состав группы. В этот период в него пробовались гитарист Сергей Потёмкин (экс-«Альфа»), вокалист Николай Носков (затем — в «Парке Горького»), клавишник Александр Мясников (экс-«Акцент»). В феврале 1985 постоянным вокалистом «Арии» был утверждён Валерий Кипелов (экс-«Лейся, песня»). Ударником стал звукоинженер «Поющих сердец» Александр Львов, клавишником и бэк-вокалистом — Кирилл Покровский. Днем рождения группы сами музыканты называют 31 октября 1985 года, когда была закончена работа над альбомом «Мания величия». Альбом был записан лишь с одним гитаристом в составе — Холстининым. Для концертной деятельности был приглашён второй гитарист, Андрей Большаков (экс-«Зигзаг», экс-«Коктейль»). Кроме того, Игорь Молчанов (экс-«Альфа») заменил за ударными Львова, оставшегося звукооператором группы. Первый концерт «Арии» прошёл в ДК МАИ 5 февраля 1986 года, на разогреве у самих себя в качестве «Поющих сердец». В том же году группа, уже сольно, приняла участие в фестивалях «Рок-панорама-86» и «Литуаника-86». На фестивалях группа была встречена одобрительно и сразу завоевала несколько премий и некоторую андеграундную популярность. Второй альбом «Арии», «С кем ты?», был записан в следующем году. Он отличался от первого утяжелённым звучанием. Большая часть композиций была написана Большаковым, поклонником Judas Priest, под влиянием стиля этой группы. Автором текстов к большинству песен (кроме «Без тебя» — Маргарита Пушкина — и инструментальной «Память о…») был Александр Елин, с чем связана остро-социальная и антивоенная тематика альбома («Воля и разум», «Встань, страх преодолей», «С кем ты?», «Игры не для нас»). Бывший ударник группы Александр Львов снова выступил в роли звукоинженера. После ряда аншлаговых концертов в «Арии» происходит конфликт между новым гитаристом Андреем Большаковым и менеджером Виктором Векштейном. Большая часть группы, кроме Холстинина и Кипелова, встаёт на сторону Андрея и разрывает отношения с Векштейном, но Виктор сохраняет права на название. Грановский, Большаков, Молчанов и Покровский создают группу «Мастер» и в 1987 году выпускают дебютный одноимённый альбом, содержащий в том числе несколько песен, написанных ими для «Арии». Путь к славе Валерий Кипелов и Владимир Холстинин остаются в «Арии». В коллектив приглашают басиста Виталия Дубинина, который играл с Холстининым и Беркутом в «Волшебных сумерках» и «Альфе» ещё в начале 80-х, а также гитариста Сергея Маврина и барабанщика Максима Удалова (оба — экс-"Чёрный кофе" и «Металлаккорд»). В 1987 году новый состав «Арии» записывает альбом, который первоначально должен был называться «На службе силы зла». Это был первый альбом, выпущенный государственным монополистом компанией «Мелодия», поэтому в него были внесены значительные изменения: альбом был переименован в «Герой асфальта» и обложка изменена соответственно, некоторые тексты подвергнуты цензуре. В конечный вариант альбома не вошла, из-за объёма пластинки, композиция «Дай руку мне» — позже она была издана на сборниках Арии «Штиль» и «Легенды русского рока». Тираж третьего альбома на виниле составил более 1 000 000 экземпляров и разошёлся за несколько месяцев. Диск считается одним из лучших в истории группы, его часто включают в число «классических» для «Арии». На песню «Улица роз» был снят первый в истории группы видеоклип. В течение 1987-88 годов «Ария» совершает гастрольный тур по всему СССР и первую поездку за рубеж, в Германию, где выступает на фестивале «Дни Стены» в Берлине. В это время отношения участников группы с менеджером снова и окончательно испортились. Музыканты настаивали на записи нового альбома, в то время как Векштейн требовал все новых концертных туров. В октябре 1988 года по причине конфликта «Арию» покидает Удалов и в ноябре вместо него приглашают Александра Манякина. В то время Удалов же остаётся в группе звукоинженером. В 1989 году группа выпускает очередной альбом под названием «Игра с огнём» с Юрием Фишкиным в качестве менеджера. Виктор Векштейн сохранил формальные права на название, из-за чего группа весь год выступала как «Ария-89». Однако Виктор так и не предъявил группе претензий на название, а через год погиб. В начале 90-х годов из-за экономического кризиса группа испытала спад в своей деятельности, резко снизив количество концертов. Музыканты вынуждены искать дополнительные источники заработка. Кипелов в этот период подрабатывал сторожем, Холстинин — частным извозом. В 1990 году Дубинин и Маврин подписывают контракт с группой «Lion Heart» и на время уезжают в Мюнхен (в составе группы их заменяли сессионные Горбатиков и Булкин), но возвращаются в группу в августе. После празднования пятилетнего юбилея и нескольких живых концертов группа начинает работать над своим пятым альбомом «Кровь за кровь», который был выпущен в 1991 году. В 1994 году была основана своя собственная студия «ARIA Records» и подписан пятилетний контракт с компанией «Moroz Records». На этом лейбле летом 1994 года были переизданы первые пять альбомов группы, включая ранние, неизданные, «Мания величия» и «С кем ты?». Оформление альбомов выполнил художник Василий Гаврилов. В сентябре был совершён двухнедельный тур по Германии в семи городах, включая выступление в берлинском хард-рок-кафе. К концу тура 1994 года в Германии у группы появились разногласия с организаторами, которые отразились на взаимоотношениях внутри команды. После окончания тура Валерий Кипелов фактически покинул группу: перестал появляться на репетициях и записи альбома в студии, и провёл несколько концертов с группой «Мастер». В декабре Алексей Булгаков (вокалист и лидер «Легиона») пробовался как замена Кипелову. В январе 1995 года Сергей Маврин покинул коллектив, заявив, что отказывается продолжать выступления без Кипелова. На место Маврина, сначала как сессионный музыкант, был приглашён Сергей Терентьев, впоследствии он стал постоянным членом группы. Кипелов и Маврин несколько месяцев выступали вдвоём с программой «Назад в будущее» с кавер-версиями песен иностранных рок-групп (Slade, Black Sabbath и др.), а также песнями «Арии». Существует бутлег одного из таких концертов. Но проект не увенчался успехом, и в конце 1995 года Кипелов вернулся в «Арию» под угрозой санкций за срыв договора со стороны компании Moroz records. Он записал вокальные партии для нового альбома «Ночь короче дня», выпущенного в сентябре 1995 года. «Ария» провела серию концертов в московском регионе с Сергеем Задорой в качестве нового менеджера, записав концертный альбом «Сделано в России», ставшим лидером чартов. В 1997 году Кипелов и Маврин вновь объединили усилия, записав в дуэте альбом «Смутное время», в котором принял участие и Алик Грановский. Дубинин и Холстинин записали свой собственный, названный «АвАрия», где Виталий принимал участие также и в качестве вокалиста. В 1998 году «Ария» выпустила «Генератор зла», где впервые присутствовали песни Терентьева и впервые не были указаны продюсеры (продюсерами предыдущих альбомов были Дубинин и Холстинин). До конца 1990-х годов песни «Арии» редко транслировались по центральным радиостанциям. Первым решило включить «Арию» в регулярную ротацию «Наше радио» во главе с Михаилом Козыревым. Уже в 2000 году сингл «Потерянный рай», принёс группе успех в чарте «Нашего радио», а клип на эту песню впервые вывел группу на канал "MTV Россия". Общий формат как «Нашего радио», так и MTV Россия был ориентирован на широкий круг слушателей и в целом был весьма далёк от рок-музыки 80-х, в стиле которой группа продолжала играть. Тем не менее, ротация на этих медиаресурсах позволила группе снова добиться популярности и приобрести поклонников среди нового поколения слушателей. В это время «лицом» группы стал Валерий Кипелов, дававший интервью от имени всего коллектива. В 2001 году «Ария» выпустила альбом «Химера», на обложке которого впервые появляется талисман группы — Жорик, придуманный художником Лео Хао. Песни «Штиль», «Небо тебя найдёт» и «Осколок льда», сразу же попадавшие в ротацию радиостанций, повторили успех «Потерянного рая». В поддержку альбома «Ария» провела тур с участием Удо Диркшнайдера в качестве гостя. Группа стала хедлайнером фестиваля «Нашествие-2001», где выступала вместе с симфоническим оркестром «Глобалис» Константина Кримца, дирижёра, известного оригинальной внешностью и экспрессивным поведением, подходящими для рок-шоу.. В 2001 году группа совершила тур с «Глобалисом», который получил название «Классическая Ария». В ходе тура напряжение во взаимоотношениях между музыкантами нарастало. По словам Валерия Кипелова, нездоровая атмосфера в группе была уже во время записи альбома «Химера», где каждый автор записывал и сводил свои песни отдельно. Он предложил Дубинину и Холстинину на время приостановить деятельность группы и заняться сольным творчеством. Те отказались, так как материал для нового альбома был уже почти готов. Тогда Кипелов отказался от участия в записи альбома. Сергей Терентьев, Александр Манякин и менеджер группы Рина Ли поддержали Кипелова, выступив против двух лидеров группы и продюсеров Юрия Соколова и Сергея Шуняева. Дубинин и Холстинин, в свою очередь, обвинили Кипелова в срыве записи альбома и издания старых альбомов в Германии, а также менеджера группы Рину Ли — в том, что она подбила Терентьева и Манякина на разрыв с группой. Возникал также вопрос о правах на название «Ария». Кипелов в интервью заявлял о неком «джентльменском соглашении» о том, что никто не будет использовать его в дальнейшей карьере. Он также приписывал коллегам планы выступать под названием «Химера», в честь последнего альбома. Дубинин и Холстинин категорически отвергали такие намерения, настаивая, что права на название принадлежат им, и что этот вопрос был урегулирован — по словам Дубинина «мы с ним решали какие-то вопросы, касающиеся названия, Валера был в курсе всего». «На переговорах у Шуняева мы предложили Валере стать совладельцем названия.» Группа под названием «Химера» действительно была основана в 2002 году при поддержке Александра Елина и «арийцев», но никто из них никогда не выступал за нее. В то же время, вокалист «Химеры», Андрей Храмов, провёл один концерт с Дубининым, Холстининым и Удаловым, исполняя «арийские» песни. Последним релизом старого состава был альбом редких треков и каверов «Штиль». В августе прошёл прощальный тур группы «Зелёная миля». После финального концерта 31 августа 2002 года в Лужниках, который получил название «Судный день» (что дало имя произошедшему расколу), Кипелов, Терентьев и Манякин покинули «Арию». На следующий день, включив в свой состав Сергея Маврина и Алексея Харькова, они объявили о создании новой группы под названием «Кипелов». Холстинин предпринял в сентябре попытку вернуть Кипелова в группу, Валерий приходил в студию на переговоры, но отказался воссоединяться без Терентьева и Манякина, которые не были приглашены. Несмотря на слухи о прекращении существования группы, в ноябре 2002 года был оглашён новый состав «Арии». Бывший музыкант «Мастера» Сергей Попов стал вторым гитаристом, Артур Беркут (экс-"Автограф", экс-"Маврик") был приглашён в качестве нового вокалиста, в «Арию» также вернулся барабанщик Максим Удалов. 5 декабря новая Ария выпустила сингл «Колизей», предшествовавший альбому «Крещение огнём». Релиз стал успешным, песни «Колизей», «Там, высоко» и «Крещение огнём» достигли первых мест в рок-чартах. Также был снят клип на песню «Колизей», транслировавшийся по MTV Россия и дошедший до первого места в хит-парадах канала. Однако часть старых фанатов не приняла смену вокалиста, считая, что голос Беркута не соответствует музыке «Арии». В 2005-06 годах «Ария» отметила свой двадцатилетний юбилей новым концертным туром, совместно с группой «Маврик». Бывшие участники группы были приглашены для участия в праздничном концерте в Лужниках. «Мастер» и Сергей Маврин откликнулись на приглашение, Кипелов же отказался из-за плотного графика собственного тура. За этот тур в 2007 году «Ария» была удостоена премии журнала Fuzz в номинации «Лучшая Live-группа года». «Юбилейная» версия песни «Воля и разум», записанная с участием Константина Кинчева, братьев Самойловых, Юрия Шевчука, Вячеслава Бутусова, а также Маврина и автора песни Большакова, добралась до первых строчек в «Чартовой дюжине». В это же время музыканты подписали долгосрочный контракт с лейблом CD Maximum, который, по их словам, предоставил более выгодные условия чем Moroz records, с которым они сотрудничали последние десять лет. Следующий альбом «Арии», «Армагеддон», вышел в сентябре 2006 года. Для его создания группа пригласила двух новых авторов текстов — Нину Кокореву и Игоря Лобанова (Кэш, вокалист альтернативной группы "Слот"), а Беркут дебютировал как композитор. Песни «Чужой» и «Свет былой любви» возглавили «Чартову дюжину». В 2007-08 «Ария» провела концертный тур, посвящённый 20-летию альбома «Герой асфальта». На заключительном концерте тура в Москве и Санкт-Петербурге приняли участие Кипелов и Маврин в качестве гостей (в том же году этот концерт был выпущен на DVD и CD). 03.10.08 стартовал тур "Дай жару". Во время тура «Ария» исполняла песни, которые не исполняла давно, либо не исполняла вообще, с момента написания. Тур очень удачно завершён концертом в Москве 22.05.09. Вклад в музыку «Ария» стала первой (и, по мнению некоторых, единственной) общенационально известной и коммерчески успешной метал-группой в СССР и России. Популярность «Арии» в немалой степени способствовала развитию соответствующего направления «тяжёлой» музыки в России. «Ария» — одна из немногих российских рок-групп, известных и гастролирующих за пределами бывшего СССР. Стиль Основным жанром «Арии» является традиционный хеви-метал в его «английской» школе: «галоповые» гитарные риффы, высокий пронзительный вокал, продолжительные гитарные соло. Группа начинала играть, подражая таким классикам хеви-метала, как Iron Maiden, Black Sabbath, Deep Purple, Judas Priest. Из-за этого критики обвиняли «Арию» в эпигонстве и неоригинальности, а также заимствовании музыкальных ходов у этих групп. Сами музыканты отвергают подобные обвинения: Владимир Холстинин в интервью Дилану Трою: "Большинство наших музыки-то никакой толком не знают. Услышали один раз — «Iron Maiden», и давай нас склонять. Триольный ритм играли еще «Deep Purple», массу аналогичных моментов можно найти и у «Jethro Tull». Вот хоть бы раз написали, что я содрал что-нибудь у «Jethro Tull». Хоть какое-то разнообразие... Оригинальная логика: а если бы «Ария» играла кондовый рок-н-ролл, то получается, что мы обдираем Чака Берри? Во всем мире дискуссия на эту тему давно закончена". С конца 90-х стиль группы стал более самостоятельным. Тогда же у «Арии» появилась склонность к лирическим рок-балладам, благодаря которым, во многом, группе удалось завоевать широкую известность. Баллады «Потерянный рай», «Штиль», «Осколок льда» транслировались радиостанциями, в то время как более «жёсткие» композиции по большей части оставались «неформатом». Со сменой состава и приходом нового вокалиста в репертуаре «Арии» снова начали преобладать «тяжёлые» композиции, а также появились некоторые элементы пауэр-метала. Каверы На счету «Арии» три изданных кавер-версии песен иностранных исполнителей. Все каверы были исполнены переведёнными на русский язык и носят названия, взятые из текста. Это Manowar — Return of the Warlord ("Пробил час"), Golden Earring — Going to the Run ("Беспечный ангел") и White Lion — Cry for Freedom (Свобода). Все три песни в русском переводе Пушкиной посвящены тематике байкеров. «Пробил час» и «Беспечный ангел» были изначально изданы на первом диске Tribute to Harley-Davidson, «Свобода» — на втором, позднее все три были переизданы на альбоме редких треков «Штиль». Песня «Беспечный ангел» некоторое время возглавляла «Чартову дюжину» и вошла в постоянный репертуар группы. Кроме того, на нескольких концертах после 2003 года «Ария» исполняла кавер-версию песни группы Iron Maiden "The Trooper". Однако, в записи эта композиция не появлялась. В свою очередь, песни группы «Ария»становились объектом кавер-версий других групп. В частности, группой Rammstein в 2003 году был выпущен редкий сингл Schtiel, содержащий кавер-версию песни «Штиль», обработанную в индастриал-стиле. Немецкая же хеви-метал группа Solemnity выпустила кавер-версию песни «Воля и разум» под заголовком «Will and Reason». Российская группа «Слот» записала свою версию песни «Улица роз». В 2001 году вышел альбом A Tribute to Aria с записями кавер-версий песен «Арии», записанных российскими метал-группами. «Ария» — излюбленная мишень шуточных кавер-версий группы «Бони НЕМ». Скрыть...
Популярные аккорды Ария:
алфавиту | просмотрам | случайно
  • Em             D   Dsus2 D
    Штиль. Ветер молчит.
      Am                    Em
    Упал белой чайкой на дно
      Em                  D   Dsus2 D
    Штиль. Наш корабль забыт
      Am                  Em
    Один в мире скованном сном…
  • Dm          C
    Эй, тореро, жизнь как миг.
      Bb            А
    Опять звучит трубы призывный зов.
    
     Dm          C
    Эй, тореро, ты или бык?
      Bb             А
    Качается чаша весов.
    
    
    Припев:
       Bb     Gm6 Bb А7
       Бог хранит тебя,…
  • Em
    Этот парень был из тех
        C            G
    Кто просто любит жизнь
                      Em
    Любит праздники и громкий смех
      C          D
    Пыль дорог и ветра свист.
             Am        G
    Он был везде и всегда своим
       D…
  • E||------------10-|----------10-|----------5-|----------4-----|
    Н||--------10-----|-------9-----|-----5Н6----|-----5Н6--------|
    G||----10---------|----9--------|------------|----------------|
    D||-0-------------|-0-----------|-0----------|-0--------------|
    А||---------------|-------------|------------|----------------|
    E||---------------|-------------|------------|----------------|
    
    Dm…
  • Вступление:
    
    1|------------------|------------------|
    2|------------------|------------------|
    3|--7-----7-----7---|--7-----7-----7---| 4 раза
    4|--7-----7-----7---|--8-----8-----8---|
    5|----5-5---5-5---5-|----5-5---5-5---5-|
    6|------------------|------------------|
    
    Куплет:
    
    1|---------------|---------------|---------------|--------------
    2|---------------|---------------|---------------|--------------
    3|7-----7-----7--|7-----7-----7--|
    4|7-----7-----7--|8-----8-----8--|…
  • Em                C+7
    Не ведьма, не колдунья
         D            Em
    Ко мне явилась в дом,
                    C+7
    Не в пору полнолунья,
       D              Em
    А летним, ясным днем...
    
       Em              C+7
       "Обычно на рассвете…
  • Cm   Fm
    Огонь все ярче,
              G#            B
    Страницы жизни в нем горят.
    Что будет дальше?
    Об этом знаю только я.
    Вопросов больше нет,
    В ответ не слышно красивой лжи.
    Меня в бесконечность уносит
    Поток стальных машин.…
  • Em                       C
    E|------------------------|-----------------------|
    B|---0-----0-----0--------|---1-----1----1--------|
    G|-----0-----0-----0------|-----0-----0----0------| => 4 times
    D|-------2-----2----------|-------2-----2---------|
    А|------------------------|-----------------------|
    E|------------------------|-----------------------|…
  • Am        C          F
    Ночь унесла тяжелые тучи,
         Dm         G           Am
    Но дни горьким сумраком полны
    Am       C                 F
    Мы расстаемся - так будет лучше
        Dm         G              Am
    Вдвоем нам не выбраться…
  • Am            G          Am
    В даль мчались стаи зимних птиц.
          Am        G            C
    Дым гнал их прочь быстрей лисиц.
      C    Dm      E     Am
    Дым плыл, над всей землей.
           Dm        E        Am
    Лютый сброд закатил…
  • D#m             C#       D#m C# Bm      D#m
    Ты совсем одна, ты в тупике, в душной неволе.
     D#m            C#      D#m C# Bm    D#m
    Быть его рабой на поводке ты не смогла.
     D#m                       C# Bm    D#m
    Ты не смогла,…
  • Hm                              G
    Кто сказал, что страсть опасна, доброта смешна,
           А                       Hm
    Что в наш век отвага не нужна?
           Hm                           G
    Там где старь от ветра часто рушится…
  • Dm          Am/C           Gm/Bb       А7
    E|--1-----------0-----------|--------------------0-------------|
    B|-----3-----3-----3-----3--|--3-----------2--------2----------|
    G|--------2-----------2-----|-----0----------------------------|
    D|--0-----------------------|----------------------------------|
    А|--------------3-----------|--1--------1--0--0----------------|
    E|--------------------------|--------3-------------------------|…
  • Fm#      Hm
    Свет дневной иссяк
    Fm#        Hm
    И вокруг меня пустыня.
      Fm#       D            Db
    Звон звёзд гонит прочь мрак,
     Fm#         Hm6
    Да святится Твоё Имя!
    Я здесь - я нигде,
    Но слезами боль не хлынет.
    Будь свят…
  • Hm                А
    От края до края небо в огне сгорает,
    Em                       G          А
    И в нем исчезают все надежды и мечты.
    Hm                 А
    Но ты засыпаешь,и Ангел к тебе слетает,
    Em…
  • Em
    Твой дом стал для тебя тюрьмой,
     C
    Для тех, кто в доме, ты чужой.
     D                         Em
    Ты был наивен и ждал перемен.
    
    Ты ждал, что друг тебя поймет.
     C
    Поймет и скажет: "Жми вперед!"
     D…
  • INTRO: (Гитара 1 = акустика; Синтезатор)
    Гит.1
    E|---------------------------------|
    H|---------------------------------|
    G|-----0-------0-------0-------0---|
    D|---2---2---2---2---2---2---4---4-|
    A|-2-------2-------3-------5-------|
    E|---------------------------------|
    
    E|---------------------------------|
    B|---------------------------------|
    G|-----0-------0-------0-------0---|
    D|---2---2---2---2---2---2---4---4-|
    A|-2-------2-------3-------5-------|
    E|---------------------------------|
    
    Синте
    E|---------------------------------|---------------------------|
    H|---------------------------------|-----------------7---------|
    G|-4---------------5---------------|-4-----------------------7-|
    D|-------------------------7-------|---------------------------|
    A|---------------------------------|---------------------------|
    E|---------------------------------|---------------------------|
    
    Гит.1
    E|---------------------------------|
    B|---------------------------------|
    G|-----0-------0-------0-------0---|
    D|---2---2---2---2---2---2---4---4-|
    A|-2-------2-------3-------5-------|
    E|---------------------------------|
    
    E|---------------------------------|
    B|---------------------------------|
    G|-----0-------0-------0-------0---|
    D|---2---2---2---2---2---2---4---4-|
    A|-2-------2-------3-------5-------|
    E|---------------------------------|
    
    Синте
    E|---------------------------------|---------------------------|
    H|---------------------------------|---------------------------|
    G|-4---------------5---------------|-4-------------------------|
    D|--------------------------7------|-----------------5-------4-|
    A|---------------------------------|---------------------------|
    E|---------------------------------|---------------------------|…
  • Dm
    Мой меч - это власть, мой меч - закон
     B
    Мой плащ кровь впитал и дрожь времен
    Gm
    Я - палач, и я рожден бессмертным
      Dm
    Слуги и цари мне бьют поклон.
    
    Мой трон - эшафот, подруга - смерть
    Вся грязь, все грехи людей на…
  • C#m
    Раньше ты был в стороне - не "против" и не "за",
    A                                       C#m
    Но однажды Старший Брат тебе открыл глаза:
    C#m
    "Сговор древних мудрецов поставил мир на грань.
    A…
  • Em
    В глубокой шахте который год
    Таится чудище-змей.
    Стальные нервы, стальная плоть,
    Стальная хватка когтей.
    
    Он копит силы, лениво ждет,
    Направив в небо радар.
    Одна ошибка, случайный взлет -
    И неизбежен удар.
    
    Припев:…
  • D
    Я о ней мечтал всю жизнь.
    Наконец мои желанья сбылись -
     Em
    Вот она, вот она!
    
     D
    Вся блестит и манит взгляд,
    На такой не грех отправиться в ад -
     Em
    Вот она, вот она!
    
        Bb
    Чем дальше - тем больше,
    Чем больше - тем…
  • Am
    Боги прокляли спятивший Рим,
    G
    Город брошенных женщин и калек.
    F
    Здесь глотают отравленный дым,
                   E
    Режут лезвием вены.
    
    Здесь по праздникам ходят смотреть,
    Как в агонии бьется человек,
    Как пирует свирепая…
  • 1-Й КУПЛЕТ:
    E|-------------------------------|
    B|-------------------------------|
    G|-2-----0-----0-----------------|
    D|---4-----2-----2--4-----4-2----|
    A|--------------------5------3-3-|
    E|-----0-----0----------0-----0--|…
  • D#m
    Рухнул мир, сгорел дотла.
        H            B
    Соблазны рвут тебя на части.
      D#m
    Смертный страх и жажда зла
    H         B
    Держат пари.
    
    В темноте рычит зверье,
    Не видно глаз, но все в их власти.
    Стань таким, возьми свое
    Или…
  • Em                    C
    Дверь на ключ, и свинцом - тоска,
     D                     А7
    Боль в душе, словно смерть близка.
     Em                  C7
    Один лишь шаг может все решить.
     D                      А9
    Теперь - ты враг,…
  • D#m           H
    Ты дитя окраин и горячих зон,
     F#  F          D#m
    Сын мертвой природы.
     D#m                  H
    Ты игрок без правил, сам себе закон,
     F# F       D#m
    Ты воин свободы.
    
        B
       Ты был никто, а теперь король…
  • Cm
    Древние рощи полны голосов,
     B       G#       Cm
    Шепота трав и камней.
    К северу тянется дым от костров,
      B           G#       Cm
    Враг рыщет в той стороне.
    
        Cm      D   G#        Cm
       Духи грозы бьют в барабан,…
  • Em                                  F# F
    Мне не до сна, палач придет на рассвете.
    Em                       C          D
    И звук шагов за дверью бьет словно нож.
    Em                                   F# F
    Но в клетку входит…
  • Em
    Стрелой горящей поезд режет темноту,
                           D C D
    Послушный неизвестным силам.
    Em
    И стук колес здесь заменяет сердца стук,
                            D C D
    И кровь от скорости застыла.
    H…
  • Am
    Ты устала быть покорной,
          F    G      Am
    Ты устала быть рабой.
    Жить надеждой иллюзорной,
    Отвечать на жест любой.
    
    Припев:
    E|---------------------------------------------------5-5---8-7-|
    H|3-3-3-1---3-1---3-3-3-1---1---3-3-3-1---3-1---6-6------------|
    G|--------2---------------2-------------2----------------------|…
  • Am
    Город твой - двуликий зверь.
           Em
    Для тебя он днем откроет дверь,
              F                  E7
    А вот в полночь он объявит тебе:
     F    G
    "Ты враг!"
     Am
    Враг парней, что ищут драк -
           Em
    Им плевать, кто трус,…
  • Em                    C
    Дай мне жить, так, как я хочу.
          Am           C        D
    Если нет - убей, мне здесь тесно.
      Em           C
    Знаю я - я всего лишь гость,
          Am         C      H7
    На твоей Земле мне нет места.…
  • D#m              H        D#m              H
    Голос, певший тебе в ночи, замолчал навсегда
    D#m            H      C#            D#m
    И сгорают в огне свечи за годами года
                     H          D#m            H
    Те, кого…
  • Am
    Все сказаны слова, все сделаны дела
              C          Н           Am
    И снова вместе на дороге мы с тобой
    Время в даль лететь, нет больше сил терпеть
    Когда ты в коже, на коне, а конь стальной
    Я не состарюсь никогда,…
  • Em             F#
    Я здесь, я пришел к тебе.
    G            F#
    Пришел вопреки судьбе.
    Em              F#
    С небес льется лунный свет.
    G                 F#
    Я - зверь, мне покоя нет.
    Am
    Крадусь в темноте как тень,
    Em
    В душе проклиная…
  • Am
    За дверь я выгнан в ночь,
     F
    Но выйти вон и сам не прочь.
     Dm
    Ты без меня хоть застрелись,
               Bdim
    Все решат, что это твой каприз,
      E7
    Повтори его на "бис".
    
      Am
    Да, я уйду, и мне плевать,
     F
    Ты знаешь, где…
  • Dm            C
    Ты сменишь лицо, как наряд,
           G                     B            Dm
    Ты войдешь в чье-то тело неслышно, как змея,
                  C
    Ты кольцами сдавишь меня,
           G                        B
    Дав понять,…
  • Dm
    Утро в декабре туманом окутано,
                              C
    Под ногами белый снег-предатель -
     Dm
    Виден каждый шаг, и холоду лютому
      B                         A
    Слишком просто сладить с тобой.
    
    Все трудней дышать пронзительным…
  • Проигрыш: Dm, F, Em, E7
    
       Am    Am/B     C    Am/B
    Закрой глаза, коснись меня.
       Dm                   E
    Ты пахнешь соблазном и медом.
      Dm              Dm/F
    Исчезнет грязь осколков дня,
      E7
    Ударит в гонг природа.…
  • Проигрыш:
    E|------------------------------|------------------------------|
    B|----8---7---------------------|---7--------------------------|
    G|---9--------9---7-------9-----|---7---9---7----------8-------|
    D|--9-------------------10------|---7-----------10----9--------|
    А|--------------------10--------|--------------------9---------|
    E|------------------------------|------------------------------|
    
    E|------------------------------|-----------------------------||
    B|---8---7----8----10--8--------|-7--8--7--8--7Н8р7-----------||
    G|--9------9------9----------9--|-7------------------7-----9--||
    D|-9------------10---------10---|-7-----------------------9---||
    А|-----------------------10-----|-----------------------10----||
    E|------------------------------|-----------------------------||
    
    Main…
  • Dm  C B   Dm B A Gm F A
    Дай руку мне.
      Dm   C  B   Dm B A Gm F A
    Здесь лишних нет.
     B                              Dm
    Ветру ты кажешься не больше песчинки.
     B                           A
    Ветер легко собьет с дороги, если…
  • Проигрыш:  Hm, G, А * 4 times
    
     Bm      G         А
    Мы колесили по дорогам,
     Bm       G        А
    Меняя струны и подруг,
     А  G        F#m
    О, нам не хватало рук,
     Bm     G            А
    И если все добро от Бога -…
  • D#m
    Машина смерти сошла с ума,
    G#m    E           D#m B D#m
    Она летит сметая всех.
    Мы увернулись на этот раз,
    Ушли по белой полосе.
    
       G#m         B  H
       Мы здесь сегодня,
       D#m       F     F#
       А завтра будем там…
  • Вступление.
    
    21 августа 1915 года британский генерал Гамильтон
    отправил Норфолкский полк в качестве подкрепления
    своим войскам на передовую. Полк поднялся высоко в горы,
    вошел в осевшее в ущелье огромное облако и... исчез.
    Из…
  • Am                Hm
    Ночь темна, мир отчаянно пуст
         F           Am
    Облака плывут домой
                 Hm
    До тебя долетит моя грусть
        F               C  C/h
    Упадет с ресниц слезой
     Dm                                Am7
    Жизнь…
  • Dm
    По дороге в Ад
     Bb
    Черный Всадник мчится -
     Gm                      Dm
    Бледное лицо и странный блеск застывших глаз.
    Он посланник Зла,
     Bb7
    Тень предсмертной птицы.
     Gm7                           Dm    C
    Словно сквозь…
  • Dm
    Слушай!
    Ты вольным считал сам себя,
     C6
    Только
    Во всем походил на раба.
        Bb7
    Ты боялся подумать не так,
         C
    Ты боялся ответить не так,
              Dm
    Ты - раб страха!
     Dm
    Страшно
    В немилости быть у богов.
     C6
    Сверху
    Сильнее…
  • Em
    Он выбрал весьма удачный маршрут.
    Объехал весь мир за 20 минут.
    Он видел огни не здешних реклам.
    Он видел улыбки сказочных дам.
    
       A
       Он не жал на педаль, на ветру не дрожал,
       Он читал перед сном популярный журнал…
  • Em
    Смотри, близится финал,
    Этот век все силы растерял,
    D               A                C  H
    Словно старый зверь, раненный зимой.
    
    Вокруг кладбище надежд,
    Вечный страх и торжество невежд,
    Будущего нет здесь у нас с тобой...…
  • Dm
    Вечер умирал, наступала ночь,
     C              Dm
    Необычный бал грянул во всю мощь...
    Стольная Москва в толк не может взять
      C               Dm
    Что сюда спешит дьявольская знать
     Gm                A
    Воланд-господин, всетемнейший…
  • G#               B        Gm     Cm
    Разделился весь мир на "они" и "мы",
    G#                B       Gm   Cm
    Бьют набатом сердца и бурлят умы,
    G#              B        Gm     Cm
    Чей металл тяжелей и верней посты,
    G#…
  • Intro 2x:
    E-----------------------------------------------------------
    B-----------------------------------------------------------
    G--------4----------9------------4----------9---------
    D--------4---5-4-3--9---5-4-3-4--4---5-4-3--9---5-3-4
    A--------2----------7------------2----------7---------
    E-----------------------------------------------------------
    
    Bridge:…
  • Em
    Грянул хор, и качнулся храм,
                D
    Смерть пришла за мной в пять часов утра,
             C                  H           Em
    Боль рванула грудь, сразу стал свободен я.
    
    Лица шлюх из миланских лож,
    Лица старых дев сводит…
  • Am               C7            Em
    Лунный свет твой сон в земле нарушит,
     Am             C7           Em
    Полночь бросит колдовской металл,
     Dm         C#         Dm/C    Dm/B
    Пес завоет по усопшим душам,
     Bb6           Bb6…
  • Am        C
    Такая вот печаль -
         Dm       E
    Никого и ничего не жаль.
        Am              C
    Не жаль бродяг в пыли,
         Dm       E
    И отчаянной моей любви.
     Dm           E
    Я устал от слез,
          C      E     Am
    От затертых…
  • E|------------------------------| 2 раза,
    B|------------------------------| затем 2 раза на бэк-фоне
    G|------------------------------|
    D|--------5----0-3---0-2---0-1--|
    A|------5----3-----2-----1------|
    E|---3--------------------------|
    
    E|-------------------------------------------------------|
    B|-------------------------------------------------------|…
  • E                         F#7
    Ночью день разорван, затянула рану мгла.
    Em              A          E
    Смотрит черный ворон на меня рубином глаз.
    Em                      F#
    Я не суеверен - но мой гость пророчит смерть.
    Em…
  • A
    Здесь не место для бесед,
    Грохот на пределе.
    Как при старте ста ракет,
    Как девятый вал.
    
    Заготовки молот бьет,
    Кровь ликует в теле,
    Льет горячий жгучий пот -
    Здесь куют металл.
    
    Мышцы крепкие блестят,
    Покорись железо,
    Чтоб…
  • Dm                 E
    Ты мечтал родиться сотни лет назад
     F                     G            A
    Биться на турнирах в блеске черных лат...
       Dm                    E
    Закат багровой краской твой бы красил щит,
    F…
  • E|------------------------|-------------------------|-------|
    B|------------------------|-------------------------|-------|
    G|-----0-----0-----0----0-|-----0-----0-----0----0--|2 раза-|
    D|---4-----4-----4----4---|---4-----4-----4----4----|-------|
    A|-2-----2-----2----2-----|-3-----3-----3----3------|-------|
    E|-0----------------------|-1-----------------------|-------|…
  • E|---------------|---------------|---------------------------|
    B|-----8--7--3-5-|-----2-3--5----|--------8--7--10--3Н5--5---|
    G|---------------|------------2--|---------------------------|
    D|---9-----------|---9-----------|-----9---------------------|
    A|-7-------------|-7-------------|--7------------------------|
    E|---------------|---------------|---------------------------|
    
    E|-------------|-------------------|------------------7~~~---|
    B|-----8-7-3-5-|-------2--3--5-----|--------8--7--10---------|
    G|-------------|----------------2--|-------------------------|
    D|---9---------|----9--------------|-----9-------------------|
    A|-7-----------|-7-----------------|--7----------------------|
    E|-------------|-------------------|-------------------------|
    
    E||--0------------|--2------------|--0--------------------0--|
    B||--0------------|--2------------|--1--------------------0--|
    G||--0------------|--2------------|--2--------------------0--|
    D||--2------------|--4------------|--2--------------------2--|
    A||--2------------|--4------------|--0--------------------2--|
    E||--0------------|--2------------|--0--------------------0--|
    
    E|-7--5------------7--5------------7--5---------7Н5----------|
    B|-------5--5-8-5--------5--5-8-5--------5-8-5------5--5-8-5-|
    G|-----------------------------------------------------------|
    D|-----------------------------------------------------------|
    A|-----------------------------------------------------------|
    E|-----------------------------------------------------------|
    
    E||--7--5------------7--5------------7--5---------7Н5-5-5~~--|
    B||--------5--5-8-5--------5--5-8-5--------5-8-5-------------|
    G||----------------------------------------------------------|
    D||----------------------------------------------------------|
    A||----------------------------------------------------------|
    E||----------------------------------------------------------|…
  • Cm               Ab
    Не дотянем мы до полночи,
     Eb                   G7
    Нас накрыл зенитный шквал.
     Cm                   Ab
    Смысла нет взывать о помощи,
     Eb            G
    Жжет руки штурвал!
     Cm                Ab
    Режет небо…
  • Dm               B
    Дай мне сойти с ума,
              Gm             A
    Ведь с безумца и спроса нет.
     Dm                  B
    Дай мне хоть раз сломать
           Gm                 C
    Этот слишком нормальный свет.
      Fm…
  • Bm         C     C#        C
    Роскошь витрин, свет ярких фонарей.
     Bm        C   C#      B
    Ты жил легко, жил не таясь.
     Bm       C    C#       C
    Но в это рай кто-то пустил зверей,
     Bm         C   C#         B
    Гордость твоя…
  • Аm
    Они посмотрят с вышки,
    Они составят план,
    И люди словно фишки
    Уйдут в густой туман.
    
    
    Они в слепом азарте
    Нажмут на пуск ракет
    И вычертят на карте
    Значки своих побед.
    
    Припев:
       F         E   E7    Аm
       Война им кажется…
  • D#m                     C#
    Ты вернулся в жизнь, в наш непрочный дом
              D#m            C#
    Полный странных лиц и чужих имён
    F#         H        C#
    Как в измерении другом
    F#      H           B
    Тебе дышалось нелегко
    
    Нежеланный…
  • D
    Что за скорбные лица?
     C
    Слезы льются ручьем, и дождь в придачу.
     G
    Ты разводишь руками,
             D А
    Дело труба.
     D
    Можно запросто спиться,
     C
    Нас хоронят живьем, и счет оплачен.
     G
    Все прощаются с нами,
              D…
  • Bm                       C#              F
    Странное чувство покоя, в прошлом тебя уже нет
       H                Bm                  G#
    В будущем ты превращён в Нескончаемый Свет
     Bm                     C#               F
    Луч…
  • D#m
    Катится эхо горных лавин
    Что-то не так, не тает в воздухе дым
              C#       B            H
    Застыл закат - земли холодной дрожь
      C#
    Идет волной...
    
    Ветви деревьев рвутся в окно
    Стекла звенят, и входят призраки в…
  • Fm     C#
    Война гонит ветер ужаса
     D#             Fm D#
    Пепел веков и дней
            C#
    Судьба вещей птицей кружится
     G#           D#
    Над головой моей
      Fm  C#           D#             Fm D#
    Время, как змей, вьётся вокруг…
  • Вступление:
    Em Em | C D | C D | Em Em > 4 раза
    Em Em | Em G\Am\G > 2 раза
    
    Em    F#m   G
    Поле битвы. Собран урожай.
    A      Am              Em         G\Am\G
    Солнце закрыло тень,  в ночь превращая день.
    Em…
  • C          G          Am
            Am              F     G
    
    Am
    Я работал как волк, но не выл на Луну
    Am                        C             G
    Каждый день я привык уходить на войну -
                            F…
  • D#m                 F#      B
    День или ночь - никому не понять
      D#m                    F#       B
    Храм разорен, крест в объятьях огня
      H                                         B
    След христиан смыт водой с грешным запахом…
  • Уходи и не возвращайся.
                   C#m  B A G#
    И не возвращайся ко мне!
    
    E7
    Ты хотела быть всех круче
    Cmaj7
    Красотой своей замучить
    B
    И заставить самых лучших
    A7
    Дружно платить тебе дань
    Em
    Ты решила в свет пробиться
    Cmaj7
    И…
  • Gm
    Духи далеких гор
    Мчатся во весь опор,
         Dm
    В огне твой край.
     Gm
    Молятся на Восток,
    Режут людей, как скот,
        Dm
    И рвутся в рай...
    
       F             E
       А у нас за душой -
          Am
       Небес простор
          G
       И вечный…
  • D#m            C#
    Расстояние руки отделяло нас от драки
     D#m                    C#         B
    Был у нас глоток реки, ветер, облака
     D#m                  C#
    Были те, кто нас вели и разгадывали знаки
     D#m…
  • Gm                         Am
    В небе над нами яркое жало луча.
     Gm                              Am
    Мечется пламя, страшен удар палача.
      F                                  Am
    Словно бумажный твой дом полыхает огнем.
     F…
  • D#m
    Свинцовой тучей тяжелеют небеса
                                       G#m
    И воздух плавится от слов непримиримых богов
         D#m
    Догорает фитиль
    
    Восточным эхом долетают голоса
    Они толкают землю в третье столкновение миров
    B…
  • Am
    Все началось среди веков
     F
    Танец вокруг невесты
     G      F      G     Am
    Она юна, стройна и чиста.
    
    Людям не жалко слов,
    И она тонет в лести.
     G         F        G
    Но для нее слова суета.
    
    
     E
    Все хотят…
  • C#m                    H
    They call me an iron snake
                     A
    But in the city house
    All my life in Prison
    G#m                                C#m
    Such a fucking feeling - known as well…
  • Dm                Gm/D         Dm   Gm/D
    Снова ночь, и в глаза вползает страх.
     Dm               Em7/D             Dm  Gm/D
    Сон и смерть так похожи - брат и сестра.
     Dm              Gm/D       C/E  Dm
    Страшно быть одному…
  • E|--------------|---------------|--------------|---------------|
    B|--------------|---------------|--------------|---------------|
    G|--------------|---------------|--------------|---------------|
    D|---2---2---2--|----2---2---2--|---2---2---2--|----2-------2--|
    A|-2---2---2---2|--2---2---2---2|--2--2---2---2|--2---2---2---2|
    E|0-------------|0--------------|0-------------|0-------1------|…
  • D#m  F#    G#m B
    Я уйду под утро,
    D#m   F#          G#m B
    Но уйду не на совсем.
    D#m       F#     G#m H
    След от слез припудри,
    G#m                        B
    Отдохни в обьятьях белых стен.
    
    Я качал тебя еще в колыбели,
    Ты ангел,…
  • Am        Bm/А    Am          Bm/А
    Дождь за окном надоел давным-давно,
       Am            Bm/А         Am   Bm/А
    И увидеть блики солнца мне не суждено.
     Am         Bm/А        Am            Bm/А
    Ты, словно тень, растворилась…
  • Dm
    Мы кровью пишем нашу жизнь,
     Edim
    Не веря больше в миражи
     Gm                             C 
    В непредсказуемой, как сон, стране
    
    В стране героев и воров
    Награбленное грабят вновь
    И сводят совесть, как пятно на…
  • Em
    Он рубил, поджигал и бил в упор,
    Волонтер темных дел и чужих афер.
    Он копил, собирал на старость лет,
    Он забыл, но его не забыли, нет.
    
     C           Am     Am7     Em
    Каждый сам, каждый сам за все,
     C         Am…
  • Em
    Рука его мала,
    Но в ней зажал весь мир
    Как жалкого птенца,
     F#dim
    Изранив когтем.
    
    И не излечит ран
    Его победный пир,
    Уродливость лица
    Не скроет копоть.
    
     C
    Божий гнев,
    Бич небес
     Em   D    Em   D
    Глотает…
  • Вступление:
    
    1|----------------|----------------|----------------|-----------------|
    2|----------------|----------------|----------------|-----------------|
    3|-------0--------|-----0-----0----|-------0--------|-----0-----0-----|
    4|-----2----4-2---|--2-----2-------|----2----4-2----|---2-----2-------|
    5|--2-----------5-|-3-----4--------|---2----------5-|-3-----4---------|
    6|-0--------------|----------------|-0--------------|-------------2-3-|…
  • Он носил волчью шкуру и перед битвой пил волчью кровь
    чтобы стать воплощением этого бесстрашного зверя и
    броситься на врага. И если он погибал, вслед валькириям,
    уносившим викинга, слышался прощальный волчий вой...
     Em…
  • E|-----------7--5--3Н0--|--7--5--3Н0-------|---------------|
    B|----------------------|------------------|---------------|
    G|-5--7--9--------------|------------------|-5-5-5-5-5-5---|
    D|-5--7--9--------------|------------------|-5-5-5-5-5-5---|
    A|-3--5--7--------------|------------------|-3-3-3-3-3-3-0-|
    E|----------------------|------------------|---------------|
    
    E|----------------------|--5~~~-|
    B|----------------------|-------|
    G|-------------------7--|-------|
    D|-5---5-5-5-5-5-----7--|-------|
    A|-5---5-5-5-5-5-----5--|-------|
    E|-3---3-3-3-3-3-0------|-------|…
  • Проигрыш solo:
    
    ----------------|------0----1----|--5------------|
    --3-------------|----------------|---------------|
    ----------------|----------------|---------------|
    ----------------|----------------|---------------|
    ----------------|----------------|---------------|
    ----------------|----------------|---------------|…
  • Dm      B     C
    И роса, и слеза
     Dm      B     C
    Пеленою на глазах
       Dm         B    C
    В черной заводи колодца
      F        C      G
    Бродит яркая звезда...
    
    Dm              C
    Они летели сто тысяч лет,
    B…
  • Dm                    C
    Бивни черных скал и пещер тупой оскал,
         G         А7           Dm   А7
    Человек среди гор ничтожно мал.
     Dm                        C
    Он ползет наверх, он цепляется за снег,
          G        А7…
  • Dmadd9
    Тем, кто видел маску смерти,
    По-другому солнце светит
     Badd11   C   Dmadd9
    Теперь ты один из них.
    Ты проводишь в поединках
    На пропахшем потом ринге
    Все ночи свои и дни.
    
    
     B
    Бои без правил
     Gm…
  • Dm
    Вспышка в темноте, яркий свет в глазах,
                  G7
    Я ослеп на миг.
    Dm
    Кто-то так хотел разбудить мой страх,
                      G7
    Разбудить мой крик.
    
          Gm                    B
          Снова все мои желанья, что…
  • Tempo: slow (80 bpm)
    (0:01 - 0:26)
    INTRO:
    Church Organ.
    ...
    (0:26 - 0:50)
    VERSE 1: (*2 times)
    Choir1
    E|-10----------------------------------------------|
    B|-------10-------------------------------------8--|
    G|----------7--------------------------7--9--10----|
    D|-------------------------------------------------|
    A|-------------------------------------------------|
    E|-------------------------------------------------|
    
    E|-------------------------------------------------|
    B|-10-------10----------------------------------8--|
    G|-------9-----------------------------7--9--10----|
    D|-------------------------------------------------|
    A|-------------------------------------------------|
    E|-------------------------------------------------|
    
    Bass…
  • E                                 Am
    Кто-то сказал, что он может бежать даром, даром.
      E                              Am
    Кто-то услышал и стал торговать паром, паром.
     G                          F
    Несколько звонких монет…
  • Am G       C   F G
    Кто видел Икара,
     Am G          C F E
    Там в синей дали?
    Крыл легкая пара,
    Сын грешной земли.
    
             Dm        C    G            C
       Он летел над горами гордый, как орел,
             Dm      C       G…
  • Intro:
    
    E|-----------------------------|-----------------------------|
    B|-----------------------------|-----------------------------|
    G|-----------------------------|-----------------------------|
    D|-----5---7-5-4-5--4---4------|-----2---4-2---5--4-2--7-5-4-|
    A|-7-7---7------------7----7-5-|-3-3---3-----3---------------|
    E|-----------------------------|-----------------------------|
    
    I
    Am
    В…
  • Em
    Когда мы солнце отдадим
    На расправу темным силам,
     H     Am    G     F    Em
    Три цифры будут править бал.
    
     Em
    Число 451.
    На шлеме смотрится красиво.
     H7
    Пускай свершится ритуал
     Em                     H7
    И…
  • A G F# G F# Em
    A
    Твой флаг поднят вверх
    Идет жизнь без помех
        G F# G F# Em
    Вперед!
    Все взял, что хотел
    А то, что не успел
    Не в счет
    
    F#
    Ты как все вокруг
    Врагам - враг, другу - друг
    G
    Но лишь под землей
    Становишься собой
    F#
    Под…
  • Em                     C7
    Он был изгоем с первых дней,
    Но выжить смог в грязи на самом дне.
    Звериный нюх, бесшумный шаг
     G            A           Em
    Этим миром владел он в мечтах.
    
    
    Проигрыш: С D Em - 2 раза
    
    
    Он…
  • Вступление: Em Esus2
    
    
     Em                   C
    Мы уходим друг за другом,
     Am7        D         H
    Не сказав последних слов.
     Em                    C
    Открываем дверь без стука
     Am7       H       Em
    В храм…
  • E|------0-------2------0-------|------0-------2-------0--------|
    B|----0---0-------0------0-----|----0---0-------0-------0------|
    G|--0-------0-------0------0---|--0-------0-------0-------0----|
    D|------------2-------2------2-|------------2-------2-------2--|
    A|-----------------------------|-------------------------------|
    E|-0------------0------0-------|-0------------0-------0--------|…
  • Em      G      D      Am
    Огненный шар коснулся воды,
     C     Hm/D     C    D
    Океану доверив свой сон.
    Звезд еще нет, близок час темноты,
     C           Hm         Em
    Синей дымкой укрыт горизонт.
    
    Голос грозы затерян…
  • В скобках указаны ноты, которые играются флажалетом.
    
    |-----------12~-|------------|
    |--------(12)---|------(12)~-|
    |-----(12)------|---8--------|
    |---9-----------|------------|
    |---------------|-9----------|
    |-0-------------|------------|
    
    |------------------|-----(12)---|
    |--------(12)------|------------|
    |------(12)-(12)---|------------|
    |----(12)-----(12)-|---------11-|
    |--10--------------|--12--------|
    |------------------|------------|
    
    |------0-|-0----|-2----|---------|
    |-----1--|--0---|---3--|---------|
    |----2---|---0--|-----2|--------0|
    |---2----|------|-0----|-020--2--|
    |-0------|------|------|----3----|
    |--------|-0----|------|---------|
    
    |-----------12~-|------------|
    |--------(12)---|------(12)~-|
    |-----(12)------|---8--------|
    |---9-----------|------------|
    |---------------|-9----------|
    |-0-------------|------------|
    
    |------------------|-----(12)---|
    |--------(12)------|------------|
    |------(12)-(12)---|------------|
    |----(12)-----(12)-|---------11-|
    |--10--------------|--12--------|
    |------------------|------------|
    
    |------0-|-0----|-------|-0~~~~-|
    |-----1--|--0---|-4-----|-0~~~~-|
    |----2---|---0--|---4---|-0~~~~-|
    |---2----|------|-----4-|-------|
    |-0------|------|-2-----|-------|
    |--------|-0----|-------|-0~~~~-|
    
    |-----------8|-3------|-2-------|
    |---------8--|--------|---3-----|
    |-------9----|----4---|-----2---|
    |----10------|------5-|-0-------|
    |------------|--------|---------|
    |--8---------|-3------|---------|
    
    |-----------|---------|
    |-----------|---------|
    |--------0--|---------|
    |-020--2----|---------|
    |----3------|---------|
    |-----------|---0~~~~-|…
  • Tempo: free time, for most of the time
    INTRO:
    BassG|----------------------------------------------|
        D|-------------------------------------------|
        A|----------------------------------------------|
        E|------ Natural…
  • Em
    Представь, что все случилось,
    Явью стал твой сон.
    Мы не напрасно бились
    С вечной Тьмой и Злом.
    
    Пропала Ночь бесследно,
    Кошкой спрыгнув с плеч.
    Трубач сыграл победу,
    Вложен в ножны меч...
    
     Hm          C
    Так…
  • Intro: C#m F#m Bsus4 B  
     
     C#m            
    Огонь все ярче  
     F#m              Bsus4 B
    Страницы жизни в нем горят 
     C#m
    Что будет дальше  
     F#m      Bsus4     B
    Об этом знаю только я 
     C#m
    Вопросов больше нет…
Наверх