Аккорды Ария - Закат

Добавлено: @romashka
Дата добавления: 16 Марта 2013г.
Рейтинг:
5.0
Просмотров: 601
Транспонировать - +
INTRO: (Гитара 1 = акустика; Синтезатор)
Гит.1
E|---------------------------------|
H|---------------------------------|
G|-----0-------0-------0-------0---|
D|---2---2---2---2---2---2---4---4-|
A|-2-------2-------3-------5-------|
E|---------------------------------|

E|---------------------------------|
B|---------------------------------|
G|-----0-------0-------0-------0---|
D|---2---2---2---2---2---2---4---4-|
A|-2-------2-------3-------5-------|
E|---------------------------------|

Синте
E|---------------------------------|---------------------------|
H|---------------------------------|-----------------7---------|
G|-4---------------5---------------|-4-----------------------7-|
D|-------------------------7-------|---------------------------|
A|---------------------------------|---------------------------|
E|---------------------------------|---------------------------|

Гит.1
E|---------------------------------|
B|---------------------------------|
G|-----0-------0-------0-------0---|
D|---2---2---2---2---2---2---4---4-|
A|-2-------2-------3-------5-------|
E|---------------------------------|

E|---------------------------------|
B|---------------------------------|
G|-----0-------0-------0-------0---|
D|---2---2---2---2---2---2---4---4-|
A|-2-------2-------3-------5-------|
E|---------------------------------|

Синте
E|---------------------------------|---------------------------|
H|---------------------------------|---------------------------|
G|-4---------------5---------------|-4-------------------------|
D|--------------------------7------|-----------------5-------4-|
A|---------------------------------|---------------------------|
E|---------------------------------|---------------------------|

 Следом идет.
Вокал
E|----------------------------------------------------------|
H|----------------------------------------------------------|
G|--4--------------5----4-2----------4--2--0-2------------4-|
D|---------5--2--------------------------------2-0---2------|
A|----------------------------------------------------------|
E|-Я     вижу,  как  закат      стекла   оконные   плавит --|

Гит.1
E|-Em------0-------Am------0-------|
H|-------0---0-----------1---1-----|
G|-----0-------0-------2-------2---|
D|---2-----------2---2-----------2-|
A|-----------------0---------------|
E|-0-------------------------------|

E|-D-----2-3-2-----Em------0-------|
B|-----3-------3---------0---0-----|
G|---2-----------2-----0-------0---|
D|-0-----------------2-----------2-|
A|---------------------------------|
E|-----------------0---------------|

Синте
E|---------------------------------|
H|---------------------------------|
G|---------------------------------|
D|-2-------------------------------|
A|---------------------------------|
E|---------------------------------|

Вокал
E|------------------------------------------------------|
H|------------------------------------------------------|
G|---------4--------5----4--2---------------------------|
D|--2---------5--2------------5------4-5---4------5--4--|
A|------------------------------------------------------|
E|-День  прожит, a ночь оставит    тени снов   в углах -|

Гит.1
E|-Em------0-------Am------0-------|
H|-------0---0-----------1---1-----|
G|-----0-------0-------2-------2---|
D|---2-----------2---2-----------2-|
A|-----------------0---------------|
E|-0-------------------------------|

E|-F#--------2-----H-------2-------|
B|---------2---2-----4---4---4-----|
G|---3---3-------3-4---4-------4---|
D|-4---4-------------------------4-|
A|---------------------------------|
E|---------------------------------|

Вокал
E|----------------------------------------------------------|
H|----------------------------------------------------------|
G|--4--------------5-----4--2-------4-2-0---2-------------4-|
D|-----------5--2------------------------------2--0--2------|
A|----------------------------------------------------------|
E| Мне      не вернуть  назад      серую  птицу  печали ----|

Гит.1
E|-Em------0-------Am------0-------|
H|-------0---0-----------1---1-----|
G|-----0-------0-------2-------2---|
D|---2-----------2---2-----------2-|
A|-----------------0---------------|
E|-0-------------------------------|

E|-D-----2-3-2-----Em------0-------|
B|-----3-------3---------0---0-----|
G|---2-----------2-----0-------0---|
D|-0-----------------2-----------2-|
A|---------------------------------|
E|-----------------0---------------|

Вокал
E|---------------------------------------------------|
H|---------------------------------------------------|
G|---------4-----------5---4--2----------------------|
D|---2---------5---2------------5----4--5-----4--5-4-|
A|---------------------------------------------------|
E|Все в прошлом,так быстро тают  замки  в  облаках. -|

Гит.1
E|-Em------0-------Am------0-------|-F#--------2-----H-------2-|
H|-------0---0-----------1---1-----|---------2---2-----4---4---|
G|-----0-------0-------2-------2---|---3---3-------3-4---4-----|
D|---2-----------2---2-----------2-|-4---4---------------------|
A|-----------------0---------------|---------------------------|
E|-0-------------------------------|---------------------------|

 (Припев играет особым боем:
 d- удар сверху вниз
 u - снизу вверх.
Табы на вокал и аккорды с басом играются вместе(везде).
Если нет баса можно и без него, но эффект будет другой.
Вокал
E|-----------------------------------------------------------|
H|--3--------------------------------------------------------|
G|-------------5---4-------------------------5---4-2---4--5--|
D|--------------------2--------------------------------------|
A|-----------------------------------------------------------|
E|-Та - ам   все  живы,                      кто любил меня -|

Гит.1
E|-0-E7--0-0-0-0-0-0-0---0-0-|-0-Am--0-0-----0-0-0-0---0---0-0-|
B|-3-----3-3-3-3-3-3-3---3-3-|-1-----1-1-----1-1-1-1---1---1-1-|
G|-1-----1-1-1-1-1-1-1---1-1-|-2-----2-2-----2-2-2-2---2---2-2-|
D|-2-----2-2-2-2-2-2-2---2-2-|-2-----2-2-----2-2-2-2---2---2-2-|
A|-2-----2-2-2-2-2-2-2---2-2-|-0-----0-0-----0-0-0-0---0---0-0-|
E|-0-----0-0-0-0-0-0-0---0-0-|-0-----0-0-----0-0-0-0---0---0-0-|

Бас
G|---------------------9-10-9------|---------------------------|
D|-----------------6-9-------9-----|-7---------7---------------|
A|-5-----------7-9-------------7-7-|---------7---7---------0-2-|
E|---------------------------------|---------------5-----------|

Вокал
E|--------------------------------------------------------|
H|--------------------------------------------------------|
G|------5--5--5---4---2--------------4--------2-----------|
D|-------------------------5----4--5-----------------4--4-|
A|--------------------------------------------------------|
E|--- где восход как праздник  бесконе  -  чной   жизни. -|

Гит.1
E|-3-C---3-3-----3-3-3-3---3---3-3-|-2-Hm--2-2-----2-2-2-2---2-|
H|-5-----5-5-----5-5-5-5---5---5-5-|-3-----3-3-----3-3-3-3---3-|
G|-5-----5-5-----5-5-5-5---5---5-5-|-4-----4-4-----4-4-4-4---4-|
D|-5-----5-5-----5-5-5-5---5---5-5-|-4-----4-4-----4-4-4-4---4-|
A|-3-----3-3-----3-3-3-3---3---3-3-|-2-----2-2-----2-2-2-2---2-|
E|-3-----3-3-----3-3-3-3---3---3-3-|-2-----2-2-----2-2-2-2---2-|

Бас
G|-----------------5---5---5---5---|-----------------4-|
D|---------------------------------|-------------------|
A|-3---------0h3-------------------|-2---------0h2-----|
E|---------------------------------|-------------------|

Вокал
E|--------------------------------------------------------|
H|--3-----------------------------------------------------|
G|-----------5------4------------------------5-4--2--4--5-|
D|--------------------2-----------------------------------|
A|--------------------------------------------------------|
E|-Та - ам  нет счета                     рекам и  морям -|

Гит.1
E|-0-E7--0-0-----0-0-0-0---0---0-0-|
H|-3-----3-3-----3-3-3-3---3---3-3-|
G|-1-----1-1-----1-1-1-1---1---1-1-|
D|-2-----2-2-----2-2-2-2---2---2-2-|
A|-2-----2-2-----2-2-2-2---2---2-2-|
E|-0-----0-0-----0-0-0-0---0---0-0-|

E|-0-Am--0-0-----0-0-0-0---0---0-0-|
B|-1-----1-1-----1-1-1-1---1---1-1-|
G|-2-----2-2-----2-2-2-2---2---2-2-|
D|-2-----2-2-----2-2-2-2---2---2-2-|
A|-0-----0-0-----0-0-0-0---0---0-0-|
E|-0-----0-0-----0-0-0-0---0---0-0-|

Бас
G|---------------------9-10-9------|---------------------------|
D|-----------------6-9-------9-----|-7---------7---------------|
A|-5-----------7-9-------------7-7-|---------7---7---------0-2-|
E|---------------------------------|---------------5-----------|

Вокал
E|------------------------------------------|
H|------------------------------------------|
G|------5--5--5--4-----2-------------4------|
D|------------------------5--4-----5--------|
A|------------------------------------------|
E|---- но по ним нельзя  доплыть  домой... -|

Гит.1
E|-3-C---3-3-----3-3-3-3---3---3-3-|-2-H---2-2-2-2---2-|
H|-5-----5-5-----5-5-5-5---5---5-5-|-4-----4-4-4-4---4-|
G|-5-----5-5-----5-5-5-5---5---5-5-|-4-----4-4-4-4---4-|
D|-5-----5-5-----5-5-5-5---5---5-5-|-4-----4-4-4-4---4-|
A|-3-----3-3-----3-3-3-3---3---3-3-|-2-----2-2-2-2---2-|
E|-3-----3-3-----3-3-3-3---3---3-3-|-2-----2-2-2-2---2-|

Бас
G|-----------------5---------------|-----------------4-|
D|---------------------------------|-------------------|
A|-3---------0h3-------------------|-2---------0h2-----|
E|---------------------------------|-------------------|

Далее идет следущее. Бой надеюсь подбирете сами
(аккорды и табы указаны)

Вокал
    G                                D
E|---------------------------------|--------------------|
H|---------------------------------|--------------------|
G|-------4---4--4----------2-----4--5-----4-4-----2-2---|
D|-----------------5-----5---------|--------------------|
A|---------------------------------|--------------------|
E|----- Возьми меня  с собой,  пурпур-   ная     река  -|

Вокал
    G                                D
E|---------------------------------|----------------|
H|---------------------------------|----------------|
G|-------4-----4-4--------2-------4--2--------------|
D|-----------------5---5-----------|---------4------|
A|---------------------------------|--------------5-|
E|---- Прочь  унеси  меня    с собой,     закат. ---|

Вокал
    Am                               C
E|---------------------------------|-------------------------|
H|---------------------------------|-------------------------|
G|-------2--2-----------------2----|-2-----------------------|
D|--------------5--5-----4--5------|-----5----5-4----5-4---2-|
A|---------------------------------|-------------------------|
E|----- Тоска   o том, что было,  рвется  через  кра-ай -----|

Вокал
    Hm
E|------------------------------------------|
H|------------------------------------------|
G|------------------------------------------|
D|-------4----4----4---------2--4----2------|
A|--------------------5-2-------------------|
E|----- под  кри - ки серых птичьих стай...-|

Далее следует акустическое соло...
На бас и на эл.гитаре REST(ГЛУШКА)

Гит.1 (acu)
E|----------------------|-----------------------------------|
H|-0----0h3-----------5-|-7---------------------------------|
G|----------------------|-----------------9-----------------|
D|----------------------|---------------------9-------------|
A|----------------------|-------------------------9b10r9--7-|
E|----------------------|-----------------------------------|

Бас
G|---R-----------R-----------R-----------R-----R---|
D|---E-----------E-----------E-----------E-----E---|
A|-3-S---3-3-3-3-S---3-3-3-3-S---3-3-3-3-S---3-S---|
E|---T-----------T-----------T-----------T-----T---|

G|---R-----------R-----------R-----------R-----R---|
D|---E-----------E-----------E-----------E-----E---|
A|-2-S---2-2-2-2-S---2-2-2-2-S---2-2-2-2-S---2-S---|
E|---T-----------T-----------T-----------T-----T---|

Гит.1
E|-----------------------------7--|----------------------------|
H|-------------7-8-10-------------|-7--------------------------|
G|-----------9--------------------|----------------9---7---7h9-|
D|--------------------------------|----------------------------|
A|--------------------------------|----------------------------|
E|--------------------------------|----------------------------|

Бас
G|---R-----------R-----------R-----------R-----R---|
D|---E-----------E-----------E-----------E-----E---|
A|-3-S---3-3-3-3-S---3-3-3-3-S---3-3-3-3-S---3-S---|
E|---T-----------T-----------T-----------T-----T---|

G|---R-----------R-----------R-----------R-----R---|
D|---E-----------E-----------E-----------E-----E---|
A|-2-S---2-2-2-2-S---2-2-2-2-S---2-2-2-2-S---2-S---|
E|---T-----------T-----------T-----------T-----T---|

Гит.1
E|----------------------------------------|--------------------|
H|-6-(6)/8-6------------------------------|--------------------|
G|-------------7-(7)/9-7------------------|-11-----------------|
D|-- gliss ----------------8-(8)/108------|-----11-------------|
A|-------------------------------------8--|---------9---9b10r9-|
E|----------------------------------------|--------------------|

Bass
G|---R-----------R-----------R-----------R-----R---|
D|---E-----------E-----------E-----------E-----E---|
A|-1-S---1-1-1-1-S---1-1-1-1-S---1-1-1-1-S---1-S---|
E|---T-----------T-----------T-----------T-----T---|

E|---R-----------R-----------R-----------R-----R---|
B|---E-----------E-----------E-----------E-----E---|
G|---S-----------S-----------S-----------S-----S---|
D|-2-T---2-2-2-2-T---2-2-2-2-T---2-2-2-2-T---2-T---|

Гит.1
E|---------------------------------------|----------------7--7-|
H|-6-(6)/8-6-----------------------------|-----------7-8-------|
G|-------------7-(7)/9-7-----------------|---8---9-------------|
D|-- gliss ----------------8-(8)/108-----|-9-------------------|
A|-------------------------------------8-|---------------------|
E|---------------------------------------|---------------------|

Бас
G|---R-----------R-----------R-----------R-----R---|
D|---E-----------E-----------E-----------E-----E---|
A|-1-S---1-1-1-1-S---1-1-1-1-S---1-1-1-1-S---1-S---|
E|---T-----------T-----------T-----------T-----T---|

G|---R-----------R-----------R-----------R-----R---|
D|---E-----------E-----------E-----------E-----E---|
A|-2-S---2-2-2-2-S---2-2-2-2-S---2-2-2-2-S---2-S---|
E|---T-----------T-----------T-----------T-----T---|

Соло на эл.гитаре:

E|-------------------------------------------------|
H|-11~~~-------------------10~~~~~~~~--------------|
G|-------------------------------------12~~~~~-----|
D|----------------------------------------------12-|
A|-------------------------------------------------|
E|-------------------------------------------------|

E|-------------------------------------------------|
B|-------------------------------------------------|
G|-------12~~~~~~~--------------9~~~~~~~-----------|
D|-12/14---------------9-9-9/12--------------------|
A|-------------------------------------------------|
E|-------------------------------------------------|

Бас
G|---R-----------R-----------R---------------------|
D|---E-----------E-----------E---------------------|
A|-3-S---3-3-3-3-S---3-3-3-3-S---3-3-3-3-3-3-3-3-3-|
E|---T-----------T-----------T---------------------|

G|---R-----------R-----------R---------------------|
D|---E-----------E-----------E---------------------|
A|-2-S---2-2-2-2-S---2-2-2-2-S---2-2-2-2-2-2-2-2-2-|
E|---T-----------T-----------T---------------------|

E|--------------------------------|----------------------------|
H|--------------------------------|----------------------------|
G|-11~~~--12p11-------------------|-11----12p11----------------|
D|-------------12----------12/14--|------------12---------12-9-|
A|--------------------------------|----------------------------|
E|--------------------------------|----------------------------|

Бас
G|---R-----------R-----------R---------------------|
D|---E-----------E-----------E---------------------|
A|-3-S---3-3-3-3-S---3-3-3-3-S---3-3-3-3-3-3-3-3-3-|
E|---T-----------T-----------T---------------------|

G|---R-----------R-----------R---------------------|
D|---E-----------E-----------E---------------------|
A|-2-S---2-2-2-2-S---2-2-2-2-S---2-2-2-2-2-2-2-2-2-|
E|---T-----------T-----------T---------------------|

E|-------------------------------------------------|
H|-11----------11------(11)bend13release11~~~~~~~~-|
G|---10--10--10------------------------------------|
D|-----12--12--------------------------------------|
A|-------------------------------------------------|
E|-------------------------------------------------|

E|-------------------------------------------------|
B|-11----------11-----(11)bend13release11~~~~~~~~--|
G|---11--11--11------------------------------------|
D|-----12--12--------------------------------------|
A|-------------------------------------------------|
E|-------------------------------------------------|

Бас
G|---R-----------R-----------R---------------------|
D|---E-----------E-----------E---------------------|
A|-1-S---1-1-1-1-S---1-1-1-1-S---1-1-1-1-1-1-1-1-1-|
E|---T-----------T-----------T---------------------|

G|---R-----------R-----------R---------------------|
D|---E-----------E-----------E---------------------|
A|---S-----------S-----------S---------------------|
E|-2-T---2-2-2-2-T---2-2-2-2-T---2-2-2-2-2-2-2-2-2-|

E|-13p10--------- T ---------------------------------|
H|------13p11h13-15p13p11--------- T ----------------|
G|-----------------------12p10h12-15p12p10-----------|
D|----------------------------------------12p10------|
A|---------------------------------------------13p10-|
E|---------------------------------------------------|

E|----------------|-11--------------11--12--11~~~~~~~~~~~~~~~--|
B|----------------|-----12-------------------------------------|
G|-12bend15rel12--|---------11---------------------------------|
D|----------------|-------------13-----------------------------|
A|----------------|--------------------------------------------|
E|----------------|--------------------------------------------|

Бас
G|---R-----------R-----------R---------------------|
D|---E-----------E-----------E---------------------|
A|-1-S---1-1-1-1-S---1-1-1-1-S---1-1-1-1-1-1-1-1-1-|
E|---T-----------T-----------T---------------------|

G|---R-----------R-----------R---------------------|
D|---E-----------E-----------E---------------------|
A|-2-S---2-2-2-2-S---2-2-2-2-S---2-2-2-2-2-2-2-2-2-|
E|---T-----------T-----------T---------------------|

Вокал
E|----------------------------------------------------------|
H|----------------------------------------------------------|
G|--4--------------5----4-2----------4--2--0-2------------4-|
D|---------5--2--------------------------------2-0---2------|
A|----------------------------------------------------------|
E|-Я     вижц,  как  закат      стекла  оконные пла - вит --|

Гит.1
E|-0-Em------------0-Am------------|-2-D-------------0-Em-|
H|-0---------------1---------------|-3---------------0----|
G|-0---------------2---------------|-2---------------0----|
D|-2---------------2---------------|-0---------------2----|
A|-2---------------0---------------|-0---------------2----|
E|-0---------------0---------------|-0---------------0----|

Вокал
E|--------------------------------------------------- ritenuto |
H|-------------------------------------------------------------|
G|--------4----------5-----4--2--------------------------------|
D|-2---------5----2-------------5----4------5-----4----------5-|
A|-------------------------------------------------------------|
E|-День прожит,  a ночь  оставит  те  -  ни   снов     в   уг -|

Гит.1
E|-0-Em------------0-Am------------|-2-F#------------2-H-|
H|-0---------------1---------------|-2---------------4---|
G|-0---------------2---------------|-3---------------4---|
D|-2---------------2---------------|-4---------------4---|
A|-2---------------0---------------|-4---------------2---|
E|-0---------------0---------------|-2---------------2---|

Вокал
E|------------|
H|------------|
G|------------|
D|--2---------|
A|------------|
E|-лах...... -|

Гит.1
E|-0-------Em----------------------|
H|--0------------------------------|
G|---0-----------------------------|
D|----2----------------------------|
A|------2--------------------------|
E|--------0------------------------|
comments powered by Disqus
Наверх