Аккорды АукцЫон - Фа-фа-фа

Добавлено: @romashka
Дата добавления: 14 Апреля 2018г.
Рейтинг:
0.0
Просмотров: 32
Транспонировать - +
В начале и между куплетами:
E|-----------------------------------------------------|
B|-----------------------------------------------------|
G|6-------6---------------6----------------------------|
D|--7-5-7---7-5-8-7-5---5---7-5-7-8-7-5-----5----(5)---|
A|--------------------8-----------------8-8---(8)---(8)|
E|-----------------------------------------------------|

Dm/A Gm/B

  Dm/A      Gm/B
Я нервный, я верный, пока...
  Dm/A
Я нежный.
 Gm/B
Фа-фа, фа-фа, фа-фа, фа-фа.
  Dm/A      Gm/B
Галлюциногены, Юга...
  Dm/A
Нас дофига,
 Gm/B
Накатила суть,
 A
Ага!

  Dm/A      Gm/B
Я беглый, я бедный, пока...
  Dm/A
Я белый,
 Gm/B
Фа-фа, фа-фа, фа-фа, фа-фа.
  Dm/A      Gm/B
Деды-дымоделы, снега...
  Dm/A
Все бы в бега,
 Gm/B
Накатила суть,
 A
Ага!

  Dm/A      Gm/B
Я нервный, я верный, пока...
  Dm/A
Я вредный.
 Gm/B
Фа-фа, фа-фа, фа-фа, фа-фа.
  Dm/A      Gm/B
Был бы я волшебный, тайга...
  Dm/A
Жил-поджигал,
 Gm/B
Накатила суть,
 A
Ага!

Аккорды:
Dm/A
E|--------------------|
B|---------6----------|
G|---------7----------|
D|---------0----------|
A|--------------------|
E|5-------------------|

Gm/B
E|--------------------|
B|---------8----------|
G|---------7----------|
D|---------8----------|
A|--------------------|
E|6-------------------|
comments powered by Disqus
Наверх