Аккорды «Barlama»

Barlama
Популярные аккорды Barlama:
алфавиту | просмотрам | случайно
  • Gm   D     Gm   F 
    Коли вечір,коли п‘яний 
    A# D      Gm     D
    Ти згадай мене,кохана 
    Gm   D     Gm   F 
    Твої губи звернуть ранок
    A#   D      Gm       D
    Сенс життя ,в тобі - кохання 
    
    Припев: 
    Gm   D     Gm  F…
  • Am       G
    Осенними листьями 
               C        Dm
    С тобою кружились мы.
              Am         G
    С тобою прощались мы
      Dm            E
    Как всегда до утра.
    
               Am          G
    Друг друга касались мы…
  • Вступление:
    Am F G E - 4 раза
    
    Куплет 1
    Am         F                 G
    Я рисую мелом под твоим балконом
            E                 Am
    Но твои родные прогоняют меня
    Am               F           G
    Я бежал к тебе с…
  • Припев
        Gm         D#       A#           D     
    Я люблю, когда ты мне звонишь на телефон
        Gm             D#      A#       D     
    Я люблю, когда на телефон мне ты звонишь.
        Gm        D#       A#      D…
  • C#m     F#m    E    G#   2 раза
    
    C#m           F#m 
    Шеф, увези меня
                      E 
    Я срываюсь в ночь 
                      G#
    За два часа до концерта 
    
    C#m              F#m
    А мысли мечутся то из крайности
    E…
  • Вступление
     E       C#m     G#m      F#
     E       C#m     G#m      F#
    
    Куплет 1
     E           
    Я просыпаюсь в холодной постели
     C#m
    Горячий кофе, ВК, понедельник.
     G#m  
    Так мало времени, но многое нужно успеть…
  • Проигрыш / вступление:
    
    
    Просто... всё так быстро происходит... я...я запутался...
    
    |---------------------------------|
    |---------------------------------|
    |------4-5-454------4-5-454-------|
    |----5--------5---5--------5------|
    |--7------------7-----------------|
    |--0------------0-----------------|
    
    |---------------------------------|
    |---------------------------------|
    |------4-5-454------4-----4-------|
    |----5--------5---5-----5---------|
    |--7------------7-----5-----------|
    |--0------------0-----------------|
    
    |---------------------------------|
    |---------------------------------|
    |------4-5-454------4-5-454-------|
    |----5--------5---5--------5------|
    |--3------------3-----------------|
    |---------------------------------|
    
    |---------------------------------|
    |---------------------------------|
    |------4-5-454------4-----4-------|
    |----5--------5---5-----5---------|
    |--3------------3-----2-----------|
    |---------------------------------|
    
    |---------------------------------|
    |---------------------------------|
    |------4-5-454------4-5-454-------|
    |----2--------5---2--------5------|
    |--0------------0-----------------|
    |---------------------------------|
    
    |---------------------------------|
    |---------------------------------|
    |------4-5-454------4-----0-------|
    |----2--------5---2-----0---------|
    |--0------------0-----------------|
    |----------------------3----------|
    
    |---------------------------------|
    |---------------------------------|
    |------4-5-454------4-5-454-------|
    |----5--------5---5--------5------|
    |--7------------7-----------------|
    |--0------------0-----------------|
    
    |---------------------------------|
    |---------------------------------|
    |------4-5-454------4-5-454-------|
    |----5--------5---5--------5------|
    |--7------------7-----------------|
    |--0------------0-----------------|
    
    Куплет…
  • Вступление:
    |-----0---------------------------|
    |---1----3-3-3-3-3-3--------------|
    |--2----2-2-2-2-2-2-2-------------|
    |---------------------------------|
    |---------------------------------|
    |---------------------------------|
    Dm
    Листья…
Наверх