Аккорды Billie Eilish - Bad Guy

Добавлено: @romashka
Дата добавления: 29 Мая 2022г.
Рейтинг:
0.0
Просмотров: 41
Транспонировать - +
[Intro]

E|-----------------------------|
B|-----------------------------|
G|-----------------------------|
D|-----------------------------| x2
A|--------1-------------1------|
E|--3---3---3---3-3---3---3-1--|

E|-----------------------------|
B|-----------------------------|
G|-----------------------------|
D|--------1-------------1---5--|
A|--3---3---3---3-3---3---3----|
E|-----------------------------|

E|---------------------|
B|---------------------|
G|---------------------|
D|--------4------------|
A|--5---5---5---5-5-5--|
E|---------------------|



[Verse 1]
 Gm
White shirt now red, my bloody nose
 Gm
Sleepin', you're on your tippy toes
 Cm
Creepin' around like no one knows
 D
Think you're so criminal...
 Gm
Bruises on both my knees for you
 Gm
Don't say thank you or please, I do
 Cm
What I want when I'm wanting to
 D
My soul? So cynical...



[Chorus]
             Gm
So you're a tough guy
                Gm
Like it really rough guy
                 Gm
Just can't get enough guy
                 Gm
Chest always so puffed guy...
         Cm
I'm that bad type
               Cm
Make your mama sad type
                     Cm
Make your girlfriend mad tight
                   D
Might seduce your dad type...

I'm the bad guy... duh



[Bridge]

E|-------------------|
B|-------------------|
G|-------------------|
D|-------------------| x4
A|----5-----4-5-3----|
E|--3-----3-------6--|

E|--------------------|
B|--------------------|
G|--------------------|
D|----5-----4-5-3-----| x2
A|--3-----3--------6--|
E|--------------------|

E|-------------------|
B|-------------------|
G|-------------------|
D|----7-----4--------|
A|--5-----5---5---3--|
E|-------------------|



[Verse 2]
Gm
I like it when you take control
Gm
Even if you know that you don't
Cm
Own me, I'll let you play the role
D
I'll be your animal...
Gm
My mom-my likes to sing along
 Gm
With me But she won't sing this song
Cm
If she reads all the lyrics, She'll
 D
Pity the men I know




---[Chorus]---


---[Bridge]---  x2



[Finale]

   Gm
E|---------|---------|
B|---------|---------|
G|---------|---------|
D|---------|---------|
A|--5---5--|--5---5--|
E|--3---3--|--3---3--|

I like when you get mad
I guess I'm pretty glad that you're alone
You said she's scared of me?
I mean, I don't see what she sees
But maybe it's 'cause I'm wearing your cologne

I'm a bad guy
I'm a bad guy
Bad guy, bad guy 
Наверх