Аккорды Billie Eilish - Bad Guy (Acoustic)

Добавлено: @romashka
Дата добавления: 23 Мая 2024г.
Рейтинг:
0.0
Просмотров: 5
Tempo: 135 BPM
Time: 4/4
Tuning: Standard

Chord Voicings:

Gm    - 355333
Gm/Bb - 653333
F     - 133211
Cm    - X35543
Cm/Eb - X65343
Cm7   - X35343
D7    - X57575
D     - X57775

[Intro]
    Gm            Gm/Bb Gm      Gm           Gm/Bb  Gm    F
e|----------------------------------------------------------------------|
B|---3----X------------------X---3----3-------------------1-------------|
G|---3----X----3----3----3---X---3----3----3----3----3----2-------------|
D|---5----X----5----3----3---X---5----5----5----5----3----3-------------|
A|---5----X----5----5----5---X---5----5----5----5----5----3-------------|
E|---3----X----3----6----3---X---3----3----3----6----3----1-------------|

    Gm            Gm/Bb Gm      Gm           Gm/Bb  Gm    F
e|----------------------------------------------------------------------|
B|---3----X------------------X---3----3-------------------1-------------|
G|---3----X----3----3----3---X---3----3----3----3----3----2-------------|
D|---5----X----5----3----3---X---5----5----5----5----3----3-------------|
A|---5----X----5----5----5---X---5----5----5----5----5----3-------------|
E|---3----X----3----6----3---X---3----3----3----6----3----1-------------|

    Cm           Cm/Eb  Cm7     Cm           Cm/Eb  Cm7
e|---3------------------------------------------------------------------|
B|---4----X----4-------------X---4----4----4----------------------------|
G|---5----X----5----3----3---X---5----5----5----3----3------------------|
D|---5----X----5----5----5---X---5----5----5----5----5------------------|
A|---3----X----3----6----3---X---3----3----3----6----3------------------|
E|----------------------------------------------------------------------|

    D7
e|---5----X----X----X----5----5----5----5----5----X---X-----------------|
B|---7----X----X----X----7----7----7----7----7----X---X-----------------|
G|---5----X----X----X----5----5----5----5----5----X---X-----------------|
D|---7----X----X----X----7----7----7----7----7----X---X-----------------|
A|---5----X----X----X----5----5----5----5----5----X---X-----------------|
E|----------------------------------------------------------------------|

[Verse 1]
 Gm    N.C.                     F
White shirt now red, my bloody nose
 Gm       N.C.                  F
Sleepin', you're on your tippy toes
 Cm7
Creepin' around like no one knows
 D
Think you're so criminal
 Gm                           F
Bruises on both my knees for you
 Gm                              F
Don't say thank you or please, I do
Cm7
What I want when I'm wanting to
D            D7
My soul? So cynical

[Chorus - Intro Pattern]
             Gm
So you're a tough guy
Gm/Bb           Gm
Like it really rough guy
Gm/Bb       F   Gm
Just can't get enough guy
Gm/Bb            Gm    N.C.
Chest always so puffed guy
         Cm
I'm that bad type
Cm/Eb     Cm7
Make your mama sad type
Cm/Eb        Cm7     D7
Make your girlfriend mad tight
                  D7
Might seduce your dad type
N.C.
I'm the bad guy
N.C.
Duh

[Post-Chorus - Interlude]

    Gm            Gm/Bb Gm      Gm           Gm/Bb  Gm    F
e|----------------------------------------------------------------------|
B|---3----X------------------X---3----3-------------------1-------------|
G|---3----X----3----3----3---X---3----3----3----3----3----2-------------|
D|---5----X----5----3----3---X---5----5----5----5----3----3-------------|
A|---5----X----5----5----5---X---5----5----5----5----5----3-------------|
E|---3----X----3----6----3---X---3----3----3----6----3----1-------------|
    Duh  Dah   Ba  buh   ba buh buh

    Gm            Gm/Bb Gm      Gm           Gm/Bb  Gm    F
e|----------------------------------------------------------------------|
B|---3----X------------------X---3----3-------------------1-------------|
G|---3----X----3----3----3---X---3----3----3----3----3----2-------------|
D|---5----X----5----3----3---X---5----5----5----5----3----3-------------|
A|---5----X----5----5----5---X---5----5----5----5----5----3-------------|
E|---3----X----3----6----3---X---3----3----3----6----3----1-------------|

    Cm           Cm/Eb  Cm7     Cm           Cm/Eb  Cm7
e|---3------------------------------------------------------------------|
B|---4----X----4-------------X---4----4----4----------------------------|
G|---5----X----5----3----3---X---5----5----5----3----3------------------|
D|---5----X----5----5----5---X---5----5----5----5----5------------------|
A|---3----X----3----6----3---X---3----3----3----6----3------------------|
E|----------------------------------------------------------------------|
     I'm the bad guy

    D7
e|---5----X----X----X----5----5----5----5----5----X---X-----------------|
B|---7----X----X----X----7----7----7----7----7----X---X-----------------|
G|---5----X----X----X----5----5----5----5----5----X---X-----------------|
D|---7----X----X----X----7----7----7----7----7----X---X-----------------|
A|---5----X----X----X----5----5----5----5----5----X---X-----------------|
E|----------------------------------------------------------------------|
    Hmm Hmmmmmm

[Verse 2]
N.C.
I like it when you take control
N.C.
Even if you know that you don't
N.C.
Own me, I'll let you play the role
N.C.                F
I'll be your animal
Gm                      F
My mommy likes to sing along
Gm                                F
With me, but she won't sing this song
Cm7
If she reads all the lyrics
        D       D7    N.C.
She'll pity the men I know

[Chorus - Intro Pattern]
             Gm
So you're a tough guy
Gm/Bb           Gm 
Like it really rough guy
Gm/Bb       F   Gm 
Just can't get enough guy
Gm/Bb            Gm    N.C.
Chest always so puffed guy
         Cm
I'm that bad type
Cm/Eb     Cm7
Make your mama sad type
Cm/Eb        Cm7     D7
Make your girlfriend mad tight
                  D7
Might seduce your dad type
N.C.
I'm the bad guy
N.C.
Duh

[Outro - Interlude]

    Gm            Gm/Bb Gm      Gm           Gm/Bb  Gm    F
e|----------------------------------------------------------------------|
B|---3----X------------------X---3----3-------------------1-------------|
G|---3----X----3----3----3---X---3----3----3----3----3----2-------------|
D|---5----X----5----3----3---X---5----5----5----5----3----3-------------|
A|---5----X----5----5----5---X---5----5----5----5----5----3-------------|
E|---3----X----3----6----3---X---3----3----3----6----3----1-------------|
    Buh  bub  Ba   buh   ba buh buh  Buh  bub  Ba   buh   ba

    Gm            Gm/Bb Gm      Gm           Gm/Bb  Gm    F
e|----------------------------------------------------------------------|
B|---3----X------------------X---3----3-------------------1-------------|
G|---3----X----3----3----3---X---3----3----3----3----3----2-------------|
D|---5----X----5----3----3---X---5----5----5----5----3----3-------------|
A|---5----X----5----5----5---X---5----5----5----5----5----3-------------|
E|---3----X----3----6----3---X---3----3----3----6----3----1-------------|
    Buh  bub  Ba   buh   ba buh buh  Buh  bub  Ba   buh   ba

    Cm           Cm/Eb  Cm7     Cm           Cm/Eb  Cm7
e|---3------------------------------------------------------------------|
B|---4----X----4-------------X---4----4----4----------------------------|
G|---5----X----5----3----3---X---5----5----5----3----3------------------|
D|---5----X----5----5----5---X---5----5----5----5----5------------------|
A|---3----X----3----6----3---X---3----3----3----6----3------------------|
E|----------------------------------------------------------------------|
     I'm only good at bein' baaaaaaaaaaaad

    D7
e|---5----X----X----X----5----5----5----5----5----X---X-----------------|
B|---7----X----X----X----7----7----7----7----7----X---X-----------------|
G|---5----X----X----X----5----5----5----5----5----X---X-----------------|
D|---7----X----X----X----7----7----7----7----7----X---X-----------------|
A|---5----X----X----X----5----5----5----5----5----X---X-----------------|
E|----------------------------------------------------------------------|
    Baaaaaaaadddd
                               Gm
e|----------------------------------------------------------------------|
B|------------------------------3---------------------------------------|
G|------------------------------3---------------------------------------|
D|------------------------------5---------------------------------------|
A|------------------------------5---------------------------------------|
E|------------------------------3---------------------------------------|
   Buh  bub  Ba   buh   ba buh Ahh
Но если и музыка нас оставит, что будет тогда с нашим миром? (Гоголь)
Мы стремимся к созданию контента, соответствующего всем нормам законодательства и уважающего интеллектуальную собственность. Мы также придаем большое значение тому, чтобы не задеть никого и не оскорбить чьи-либо чувства. Если у вас есть вопросы или претензии по размещенному материалу, пожалуйста, сообщите нам об этом на указанный адрес электронной почты: [email protected].
Шрифт
-
0
+
Прокрутка
-
0
+
Стоп
Наверх