Аккорды Bitcevsky park - Стадия невозврата

Добавлено: @romashka
Дата добавления: 22 Июня 2022г.
Рейтинг:
0.0
Просмотров: 36
Транспонировать - +
[Вступление]:
----------------|----------------|----------------|----------------|
----------------|----------------|----------------|----------------|
----------------|----------------|----------------|----------------|
-----4-4-----5-5|-----4-4-----5-5|-----4-4-----5-5|-----4-4-----5-5|
-5-5-----4-4----|-5-5-----4-4----|-5-5-----4-4----|-5-5-----4-4----|
----------------|----------------|----------------|----------------|

Затем F#m на каждое начало такта:
----------------|----------------|----------------|----------------|
2~~~~~~~~~~~----|2~~~~~~~~~~~----|2~~~~~~~~~~~----|2~~~~~~~~~~~----|
2~~~~~~~~~~~----|2~~~~~~~~~~~----|2~~~~~~~~~~~----|2~~~~~~~~~~~----|
4~~~~~~~~~~~----|4~~~~~~~~~~~----|4~~~~~~~~~~~----|4~~~~~~~~~~~----|
4~~~~~~~~~~~----|4~~~~~~~~~~~----|4~~~~~~~~~~~----|4~~~~~~~~~~~----|
----------------|----------------|----------------|----------------|

Есть билет туда, нет билета обратно
Время не быстро, не медленно просто течёт
Это стадия невозврата
Всё проходит и это тоже пройдёт

F#m
Тени слов, сказанных вслух
За сегодня и с давних пор
F#m
Этот бой состоит из нас двух
Поглощение и террор
F#m
Эту сцену знаю наизусть
Больше нет ничего между строк
F#m
Улетаешь снова, ну и пусть
Лети, лети на восток

Есть билет туда, нет билета обратно
Время не быстро, не медленно просто течёт
Это стадия невозврата
Всё проходит и это тоже пройдёт


[Проигрыш]:
--------------------------------|-------------------------------|
--------------------------------|-------------------------------|
--2---4-------------------------|--2---4------------------------|
0---0---0-4-----2-4-5-4---------|0---0---0-4-----4---5-- ----|
--------------------------------|-------------------------------|
--------------------------------|-------------------------------|

Лети на восток

--------------------------------|-------------------------------|
--------------------------------|-------------------------------|
--2---4-------------------------|--2---4------------------------|
0---0---0-4-----2-4-5-4---------|0---0---0-4-(5)-4--/5-- ----|
--------------------------------|-------------------------------|
--------------------------------|-------------------------------|

Есть билет туда, нет билета обратно
Время не быстро, не медленно просто течёт
Это стадия невозврата
Всё проходит и это тоже пройдёт 
Наверх