Аккорды Blackberry Smoke - Ain't Gonna Wait

Добавлено: @romashka
Дата добавления: 06 Марта 2024г.
Рейтинг:
0.0
Просмотров: 70
Транспонировать - +
[Intro]

      E           A     A/D
e|---------------------------------------------------------------------------|
B|----0-----------2---h-3----------------------------------------------------|
G|----1-----------2-----2----------------------------------------------------|
D|----2-----------2---h-4----------------------------------------------------|
A|----2-------0---0-----0-----4----2-----------------------------------------|
E|0---0----------------------------------------------------------------------|

Play 2 X

[Verse]

E
Lay me down to sleep
A/D
 Sweet dreams never come to me
A/D                               D
 Just some time between two crazy days
E
 Guess I can't complain 
A/D
 I get pleasure I get pain
A/D                                   D
 I'm just trying to get as much as I gave
A                             E
 Cutting loose from all this lonely misery
B
 Gotta get a move on
                           E
 Time ain't gonna wait for me

intro riff again
      E           A     A/D
e|---------------------------------------------------------------------------|
B|----0-----------2---h-3----------------------------------------------------|
G|----1-----------2-----2----------------------------------------------------|
D|----2-----------2---h-4----------------------------------------------------|
A|----2-------0---0-----0-----4----2-----------------------------------------|
E|0---0----------------------------------------------------------------------|

Play 2 X

 [2nd verse]

E
 Writing's on the wall
A/D
 I can hear the beckon call
A/D                               d
 Of the things that I have yet to see
E
 Waitin' round be damned
A/D
 Losing faith in who I am
A/D                                       D
 Got to shake myself and tell me that I'm free
A                       E
 I ain't one to hang around and see
B
 Gotta get a move on
                           E
 Time ain't gonna wait for me

   Turnaround part

   A ( 7th position)
 Patience is just lost on me
   F   ( 5 th position)
 This thing they call it destiny
    B   ( 9th position)
 Gimme all that I've got

 Coming to me

SOLO IN 9TH POSITION    C#


e|-------------------------------------------------------------------------------|
B|---12br----------------9-10-9-------------------------------------------12-----|
G|----------11 b--9---------------11---9-----9b-------9---11b--9-------11br--11-b|
D|---------------------------------------11------9-11---11-----------------------|
A|-------------------------------------------------------------------------------|
E|-------------------------------------------------------------------------------|

    E
 Lay me down to sleep
   A/D
 Sweet dreams never come to me
   A/D                          D
 Like I'm always just one wink away
    A                             E
 I can't stand to wonder what could be
   B
 Gotta get a move on
                           E
 Time ain't gonna wait for me

miscellaneous chords

     B     A 7th pos     F 5Th pos       B 9th pos
e|---0----------------------------------------------------------------------------|
B|---0-----10-------------8-------------12----------------------------------------|
G|---4-----9--------------7-------------11----------------------------------------|
D|---4-----7--------------5-------------9-----------------------------------------|
A|---2----------------------------------------------------------------------------|
E|--------------------------------------------------------------------------------|

************************************

| h   Hammer-on
| br  Bend release
| b   Bend

************************************ 
Наверх