Аккорды Blackberry Smoke - Woman In The Moon

Добавлено: @romashka
Дата добавления: 06 Марта 2024г.
Рейтинг:
0.0
Просмотров: 50
[Intro]

e|--------------------000-000---2--------------------------------------------|
B|--------------------111-111---3--------------------------------------------|
G|-----------4--555---000-000---2--------------------------------------------|
D|----4577---4h5567-0h2---------0--------------------------------------------|
A|----5555---0--000---0--3------0--------------------------------------------|
D|----0000----------------------0--------------------------------------------|

[Verse]

e|--------------------000-000---2-222-------------------000-000---2----------|
B|--------------------111-111---3-333-------------------111-111---3----------|
G|-----------4--555---000-000---2-222----------4--555---000-000---2----------|
D|----4577---4h5567-0h2---------0-000---4577---4h5567-0h2---------0----------|
A|----5555---0--000---0--3------0-000---5555---0--000---0---3-----0----------|
D|----0000----------------------0-000---0000----------------------0----------|

[Pre-Chorus]

e|---------------------------------------------------------------------------|
B|--------------555--333--333--333--555--333--5-----------555--333--333--333-|
G|--------------666--222--444--222--666--222--6-----------666--222--444--222-|
D|--------------777--444--555--444--777--444--7-----------777--444--555--444-|
A|--------------000--000------------000-------------------000--000-----------|
D|----0-2-4-5--------000-------------------------0-2-4-5-------000-----------|

e|----000-000---2------------------------------------------------------------|
B|----111-111---3------------------------------------------------------------|
G|----000-000---2------------------------------------------------------------|
D|--0h2---------0------------------------------------------------------------|
A|----0--3------0------------------------------------------------------------|
D|--------------0------------------------------------------------------------|

[Chorus]

e|----3333-0000-2202-3333-0000-2202-2222-1111-3333-3333---000-000-2----------|
B|----3333-1111-3333-3333-1111-3333-1111-0000-4444-2222---111-111-3----------|
G|----0000-0000-2222-0000-0000-2222-2222-1111-5555-4444---000-000-2----------|
D|----0000-2222-0000-0000-2222-0000-0000----------------0h2-------0----------|
A|----0000-0000-0000-0000-0000----------------------------0--3----0----------|
D|----3333------0000-3333-----------------------------------------0----------|

[Outro]

e|--------------------000-000-2----------------------------------------------|
B|--------------------111-111-3----------------------------------------------|
G|----4577----4555----000-000-2----------------------------------------------|
D|----5555--4h5567--0h2-------0----------------------------------------------|
A|----0000----0000----0--3----0----------------------------------------------|
D|----------------------------0----------------------------------------------|

e|---------------------------------------------------------------------------|
B|---------------------------------------------------------------------------|
G|---------------------------------------------------------------------------|
D|---------------------------------------------------------------------------|
A|---------------------------------------------------------------------------|
D|---------------------------------------------------------------------------|

************************************

| x   Dead note
| g   Grace note
| (n) Ghost note
| h   Hammer-on
| p   Pull-off
| r   Release
| >   Accented note
| t   Tapping
| b   Bend
| br  Bend release
| pb  Pre-bend
| pbr Pre-bend release
| /   Slide up
| \   Slide down
| ~   Vibrato
| s   Slap
| P   Pop
| PM  Palm mute
| TR  Trill
| N   Tremolo

************************************  
+
-
Тональность
-
0
+
Шрифт
-
0
+
Прокрутка
-
0
+
Стоп
Наверх