Аккорды Blitzkid - Candyman

Добавлено: @romashka
Дата добавления: 02 Января 2024г.
Рейтинг:
0.0
Просмотров: 101
Tuning:Drop C (C,G,C,F,A,D)

Intro Pt.1 x4
D------------------------|
A------------------------|
F------------------------|
C-2-2-0-------------2-3--|
G-2-2-0x16----3-----0-1--|
C-2-2-0-----5---5-0------|
      .
Intro Pt.2 x1
D--------------------|
A--------------------|
F--(x3)-----(x3)-----|
C-2-22---5-0-00---5--|
G-2-22---5-0-00---5--|
C-2-22---5-0-00---5--|

Verse 1 Pt.1 x3
D--------------------|
A--------------------|
F--(x3)-----(x3)-----|
C-2-22---5-0-00---5--|
G-2-22---5-0-00---5--|
C-2-22---5-0-00---5--|

Verse 1 Pt.2 x1
D----------------------|
A----------------------|
F--(x3)----------------|
C-2-22---5-0-00-0-0----|
G-2-22---5-0-00-0-0x9--|
C-2-22---5-0-00-0-0----|
                  .

Chorus 1 x1
D---------------------------|
A---------------------------|
F-5-5----7-7------------777-|
C-5-5x6--7-7x6--2-2-----777-|
G-3-3----5-5----2-2x12--555-|
C---------------2-2---------|
                  .

D----------------------------|
A----------------------------|
F-5-5----7-7----4-4-----2----|
C-5-5x6--7-7x6--4-4x10--2-5--|
G-3-3----5-5----2-2-----0-5--|
C-------------------------5--|

Then:
*Verse 2 Pt.1 x3
*Verse 2 Pt.2 x1

Chorus 2 Pt.1 x2
D---------------------------|
A---------------------------|
F-5-5----7-7------------777-|
C-5-5x6--7-7x6--2-2-----777-|
G-3-3----5-5----2-2x12--555-|
C---------------2-2---------|
                  .

D-----------------------|
A-----------------------|
F-5-5----7-7----4-4-----|
C-5-5x6--7-7x6--4-4x10--|
G-3-3----5-5----2-2-----|
C-----------------------|

Chorus 2 Pt.2 x1
D-------|
A-------|
F-2-----|
C-2--5--|
G-0--5--|
C----5--|

Outro Pt.1 x5
D--------------------|
A--------------------|
F--(x3)-----(x3)-----|
C-2-22---5-0-00---5--|
G-2-22---5-0-00---5--|
C-2-22---5-0-00---5--|

Outro Pt.2 x1
D------------------------------|
A------------------------------|
F--(x3)----------( P.M )--2----|
C-2-22---5-0-00-0-00000---2-5--|
G-2-22---5-0-00-0-00000---0-5--|
C-2-22---5-0-00-0-00000-----5--|

Outro Pt.3 x1
D-------------|
A-------------|
F-------------|
C-2~~~~---2\--|
G-2~~~~---2\--|
C-2~~~~---2\--|

Song Order:
*Intro Pt.1 x4
*Intro Pt.2 x1
*Verse 1 Pt.1 x3
*Verse 1 Pt.2 x1
*Chorus 1 x1
*Verse 2 Pt.1 x3
*Verse 2 Pt.2 x1
*Chorus 2 Pt.1 x2
*Chorus 2 Pt.2 x1
*Outro Pt.1 x5
*Outro Pt.2 x1
*Outro Pt.3 x1

Key:
\=Slide Up
.=Palm Mute
~=Let Note Ring
Но если и музыка нас оставит, что будет тогда с нашим миром? (Гоголь)
Мы стремимся к созданию контента, соответствующего всем нормам законодательства и уважающего интеллектуальную собственность. Мы также придаем большое значение тому, чтобы не задеть никого и не оскорбить чьи-либо чувства. Если у вас есть вопросы или претензии по размещенному материалу, пожалуйста, сообщите нам об этом на указанный адрес электронной почты: [email protected].
Шрифт
-
0
+
Прокрутка
-
0
+
Стоп
Наверх