Аккорды Blitzkid - Mr. Gore

Добавлено: @romashka
Дата добавления: 02 Января 2024г.
Рейтинг:
0.0
Просмотров: 124
Intro (Lead and Rhythm)

E|---------------------------------------| x2
B|---------------------------------------|
G|-13~131313131313-8/510~101010-8~888888-|
D|---------------------------------------|
A|-11~111111111111-6/3-8~888888-6~666666-|
E|---------------------------------------|

E|-------------------------------------| x2
B|-------------------------------------|
G|-------------------10101010-8-888888-|
D|-6-666666-6-666666-10101010-8-888888-|
A|-6-666666-6-666666-8-888888-6-666666-|
E|-4-444444-4-444444-------------------|

Verse

E|-------------------------------------| x4
B|-------------------------------------|
G|-------------------10101010-8-888888-|
D|-6-666666-6-666666-10101010-8-888888-|
A|-6-666666-6-666666-8-888888-6-666666-|
E|-4-444444-4-444444-------------------|

Chorus

E|-------------------------------------| x4
B|-------------------------------------|
G|-6-666666-6-666666----------6-666666-|
D|-6-666666-6-666666-6-666666-6-666666-|
A|-4-444444-4-444444-6-666666-6-666666-|
E|-------------------4-444444----------|

E|-------------------------------------| x2
B|-------------------------------------|
G|-------------------10101010-8-888888-|
D|-6-666666-6-666666-10101010-8-888888-|
A|-6-666666-6-666666-8-888888-6-666666-|
E|-4-444444-4-444444-------------------|

Solo (Played with Verse Guitar x2)

E|---------------------------------------|
B|---------------------------------------| x1
G|---------------------------------------|
D|---------------10-11-13-11-10----------|
A|-11~~~11~11-13----------------13/15\13-|
E|---------------------------------------|

E|---------------------------------------------|
B|---------------------------------------------| x1
G|------------------------------13-12----------|
D|---------------10-11-13-11-10-------13-------|
A|-11~~~11~11-13-------------------------11~~~-|
E|---------------------------------------------|

Outro

E|------------------------------|
B|------------------------------| x1
G|------------------------------|
D|-6-6---4/6-6---4/6-6---4/6~~~-|
A|-6-6---4/6-6---4/6-6---4/6~~~-|
E|-4-4---2/4-4---2/4-4---2/4~~~-|

Structure:

Intro
Verse
Intro Bit
Verse
Chorus
Solo
Verse
Chorus
Outro

Notes:

All the 10s are tens, not 1s and 0s. The 11s are elevens, not 1s and 1s. The same goes 
for the 13s. They are also played as many times as the corresponding notes. 
I cut them short to save space, and to make tabs easier to read.

Blitzkid typically plays a half step down. This was tabbed with the guitar in standard 
tuning. If you prefer a half step down, you’ll have to adjust.
Но если и музыка нас оставит, что будет тогда с нашим миром? (Гоголь)
Мы стремимся к созданию контента, соответствующего всем нормам законодательства и уважающего интеллектуальную собственность. Мы также придаем большое значение тому, чтобы не задеть никого и не оскорбить чьи-либо чувства. Если у вас есть вопросы или претензии по размещенному материалу, пожалуйста, сообщите нам об этом на указанный адрес электронной почты: [email protected].
Шрифт
-
0
+
Прокрутка
-
0
+
Стоп
Наверх