Аккорды Blitzkid - Mary And The Storm

Добавлено: @romashka
Дата добавления: 02 Января 2024г.
Рейтинг:
0.0
Просмотров: 97
Made a really easy rendition of the song, it has no fills, so i f you want to put fills 
be my guess, i'm just tired of no one putting any good bass tabs for this band

G|----6----6-----6---6------6---6---------------------------------|
D|----------------------------------------------------------------|(intro)
A|-4----4---------------------------------------------------------|
E|------------4----4-----6----6-----------------------------------|

G|--------------------------------|
D|--------------------------------|(verse)
A|4-444444------------------------|
E|----------4-444444--6-666666----|

G|----------------------------------|
D|----------------------------------|(chorus)
A|2-222222--------------------------|
E|---------2-222222-4-4444444444444-|		
Но если и музыка нас оставит, что будет тогда с нашим миром? (Гоголь)
Мы стремимся к созданию контента, соответствующего всем нормам законодательства и уважающего интеллектуальную собственность. Мы также придаем большое значение тому, чтобы не задеть никого и не оскорбить чьи-либо чувства. Если у вас есть вопросы или претензии по размещенному материалу, пожалуйста, сообщите нам об этом на указанный адрес электронной почты: [email protected].
Шрифт
-
0
+
Прокрутка
-
0
+
Стоп
Наверх