Аккорды Blur - Bad Day

Добавлено: @romashka
Дата добавления: 26 Июня 2024г.
Рейтинг:
0.0
Просмотров: 11
Intro/Prechorus/Preverse

G|-------------------|----------|
D|-------------------|----------|
A|-3s5-3s5-3p2h3-2-0-|-3-3---3--|
E|-------------------|-----5----|

Verse 1 & 3

G|---------------|--------------|---------------|--------------|
D|---------------|--------------|---------------|--------------|
A|-3s5-3s5-3p2h3-|-3s5-3s5-3p2h5|-3s5-3s5-3p2h3-|-3s5-3s5-3p2h5|
E|---------------|--------------|---------------|--------------|

"No/Yes she said..."

G|---------------|
D|---------------|
A|-3--3--0-2-3-4-|
E|---------------|

Verse 2 & 4

G|---------------|-5----------|-5-----------|---------------|
D|---------------|------------|-------------|---------------|
A|-3s5-3s5-3p2h3-|---3s5-3p2h3|---3s5-3p2h3-|-3s5-3s5-3p2h5-|
E|---------------|------------|-------------|---------------|

Chorus

G|-------------------|-------------5-------|-------------------|---------------------|---------|
D|-------------------|---------5/7---7p5p0-|-------------------|---------------3s5-4-|---------|
A|-3s5-3s5-3p2h3-2-0-|-3s5-3s5-------------|-3s5-3s5-3p2h3-2-0-|-3s5-3s5-3p2h3-------|-5-5-0-2-|
E|-------------------|---------------------|-------------------|---------------------|---------|
^^This leads into the "No she said..." part^^

Interlude Before Solo (Just kind of listen along. Alex is just doing whatever with 
something like this.)

G|-------------------|-------------|
D|-------------------|-----3s5-4---|
A|-3s5-3s5-3p2h3-2-0-|-3-3---------|
E|-------------------|-------------|

Solo

G|---------------|------------|
D|---------------|-----3s5-4--|
A|-3s5-3s5-3p2h3-|-3-3--------|
E|---------------|------------|
Но если и музыка нас оставит, что будет тогда с нашим миром? (Гоголь)
Мы стремимся к созданию контента, соответствующего всем нормам законодательства и уважающего интеллектуальную собственность. Мы также придаем большое значение тому, чтобы не задеть никого и не оскорбить чьи-либо чувства. Если у вас есть вопросы или претензии по размещенному материалу, пожалуйста, сообщите нам об этом на указанный адрес электронной почты: [email protected].
Шрифт
-
0
+
Прокрутка
-
0
+
Стоп
Наверх