Аккорды «Blur»

Blur
Все началось с того, что в 1979 году Дэймон Албарн познакомился с Грэмом Коксоном. Оба друга еще с детства подавали надежды в музыке, правда, классической. После школы друзья разъехались и вновь встретились лишь в Гоулдсмитском колледже Лондона, где в 1989 году организовали группу Seymour, в которую также вошли Алекс Джеймс и Дэйв Раунтри. Музыканты много выступали и довольно скоро стали достаточно известными. Следует заметить, что тогда их музыка была более экспериментальной и группу бросало из… Читать полностью... Все началось с того, что в 1979 году Дэймон Албарн познакомился с Грэмом Коксоном. Оба друга еще с детства подавали надежды в музыке, правда, классической. После школы друзья разъехались и вновь встретились лишь в Гоулдсмитском колледже Лондона, где в 1989 году организовали группу Seymour, в которую также вошли Алекс Джеймс и Дэйв Раунтри. Музыканты много выступали и довольно скоро стали достаточно известными. Следует заметить, что тогда их музыка была более экспериментальной и группу бросало из одного стиля в другой. В ноябре 1989 года ими заинтересовался глава фирмы Food Records Энди Росс, после того как прослушал демозапись Blur. В результате группе был предложен контракт, который был подписан в марте 1990 года, как раз в тот момент, когда у Грэма и Алекса были выпускные экзамены, о которых они предпочли забыть. Одним из условий контракта было смена названия, в результате чего они и стали называться Blur. Пресса расточала множество комплиментов относительно Blur. Их музыка соединяла в себе множество самых различных элементов традиционной современой британской музыки с психоделическими экспериментами Pink Floyd и шумовыми экспериментами My Bloody Valentine. В октябре 1990 года вышел дебютный сингл “She`s So High”, который занял 48-е место в хит-параде Великобритании, собрав множество похвал критиков, хотя и был всего лишь записью своего времени. Конец года группа провела выступая с концертами в небольших залах, подтверждая тем самым свою высокую репутацию концертной группы. В апреле 1991 года вышел второй сингл “There`s No Other Way”. Он достиг 8-го места в хит-параде, но ничего нового не показал. Тем не менее 8-е место привело к приглашению группы на престижное британское музыкальное шоу Top Of The Pops. После второго сингла и выступления на Top Of The Pops их знала уже вся страна. Третьим синглом стал “Bang”, выпущенный в июле 1991 года. Он стал той убийственной записью, которой так не хватало, чтобы группа продолжала свое триумфальное восхождение на вершину шоу-бизнеса. Критики и слушатели восприняли его на ура. Дебютный альбом не заставил себя долго ждать и вышел в конце августа. Он отличался прежде всего своим стилевым разнообразием. В нем слышались отзвуки американского гранджа (“Slow Down”), космические эффекты а-ля My Bloody Valentine (“Repetition”), но и заурядной попсовые темки тоже находили свое место (“Bad Day”). Однако с уверенностью можно было сказать, что профессионализм музыкантов по сравнению с первыми пробами заметно возрос. Так последняя песня “Wear Me Down” заметно выделялась тяжелыми гитарными рифами, наложенными на классическую простую поп-мелодию. Также великолепны были композиции “Birthday” и “Sing”. Альбом пользовался популярностью у публики, в результате чего он поднялся до 7-го места. В творческом плане 1992 год для Blur начался с выпуска в марте с четвертого по счету сингла “Popscene”. Результат - лишь 32-е место в хит-параде Великобритании. Мрачно... И это после почти годового перерыва! Ложкой меда в бочке дегтя стал тур по Японии, прошедший с большим успехом. После возвращения на родину музыкантов поджидало еще несколько сюрпризов. Во-первых, черновые записи для нового альбома, который должен был продюсировать Энди Партридж, загадочно исчезли. Во-вторых, все деньги, которые группа получила за свой дебютный альбом, "испарились". Музыкальные неудачи привели к тому, что участники группы запили и ударились в наркотики. В скором времени они стали появляться в нетрезвом виде на концертах, от чего страдало их качество, а это не могло не разочаровать поклонников. Терпению звукозаписывающей компании Food пришел конец, и она предъявила ультиматум: или музыканты возьмутся за голову, или контракт будет расторгнут. Тяжелый год для Blur, ничего не скажешь. В таком положении самым разумным было забыть все и начать все заново. Что, собственно, они и сделали. Изменив свой имидж, они взялись и за музыку. Засев в студии с поздней осени 1992 года, к началу нового они уже записали достаточно материала для нового альбома. Вышедшая программа получила название “Modern Life Is Rubbish”. В жанровом плане “Modern Life Is Rubbish” тоже удивлял разнообразием. Здесь легко узнавался и современный блюз (“Miss America”), и арт-панк (“Advert”). Нашлось место для мелодичных баллад (“Blue Jeans”), глэм-роковых пассажей (“Chemical World”) и праздничных “Sunday Sunday” и “Resigned”, с ее меланхоличными синтезаторными аккордами. Но, несмотря на такое "дикое" смешение стилей, альбом все-таки звучал целостно. Сразу же после выхода, он занял 15-е место в британском хит-параде. Всю осень 1993 года группа провела в турне по Британии, а выступление на Reading Festival окончательно утвердил их популярность. Возвращение состоялось! Окрыленные успехом, музыканты в ноябре 1993 года вернулись в студию и начали работу над новым альбомом “Parklife”, который несколько напоминал “Modern Life Is Rubbish”. Но именно со времени выхода этого альбома Blur стали называть суперзвездами британской музыки. Ведь вытеснить альбом Pink Floyd “The Division Bell” с первой строчки хит-парада чего-то да стоит! “Parklife” завоевал невероятное количество призов и титулов, признавался многими странами и различными музыкальными изданиями лучшими в году. Исключением стали лишь США. Ну не нравится им Blur и все тут. Но самим музыкантам было не до этого. Почти весь оставшийся год они провели в турне. Первые три альбома Blur были отмечены ростом их профессионализма. Однако встал вопрос: удастся ли это сделать и на четвертой программе? Это представлялось особенно непростым делом в связи с высотой, на которой они поднялись. Вышедший в первой половине 1995 года “The Great Escape” стал настоящей проверкой на прочность. И снова он получился достаточно целостным, несмотря на стилевое разнообразие входивших в него песен. Открывался он достаточно тяжелой и мощной “Stereotypes”. Следом шли достаточно коммерческая и попсовая, но тем не менее заводная “Country House”, романтическая “Best Days” и по-мальчишески озорная “Charmless Man”. Партии духовых инструментов придавали неповторимую свежесть “Fade Away”. Забавная “Top Man” сменялась достаточно серьезной, с великолепным, временами почти симфоническим звучанием “The Universal”. Далее шли настолько разноплановые песни, что просто диву даешься: как их можно было всунуть в один альбом, да еще так, чтобы они настолько сочетались? Роковая печальная баллада “He Thought Of Cars”, дразнящая своей мандолиной “Ernold Same”, почти панковая “Globe Alone” и завершающая программу “Yuko And Hiro”, в которой с трудом различимая мелодия поверх укрыта плотным "одеялом" электронных наворотов. Мощно, ничего не скажешь. Осознавая это, бас-гитарист Алекс Джеймс заявил, что с этой программой они завоюют и Америку. Однако та не далась, хотя “The Great Escape” прокатился по миру, сопровождаемый волной успеха. С другой стороны, он остался несколько в тени в виду превосходившего его успеха Oasis с их вторым альбомом. Как тут не развязаться войне! Хотя, честно говоря, следует признать, что она была скорее раздута и подогреваема средствами массовой информации. Стороны не раз обменивались "комплиментами". Итогом года стало вручение 4 престижных наград Brit Awards. Таким образом, Blur заняли 1-е место... после Oasis. Естественно, что музыканты двух соперничавших коллективов рано или поздно устали от конфронтации и начали 1996 год с извинений. Oasis продолжали свое победоносное турне, а Blur начиная с мая принялись за работу над новым альбомом, которая к ноябрю была уже завершена, но музыканты решили на деле доказать, что их больше не волнует конкуренция с Oasis, и определили дату выхода альбома 20 февраля 1997 года. Программа вышла без названия, просто “Blur” и все. С каждой новой программой Blur объединяют в своих альбомах все более необъединимые вещи. В этом можно убедиться за 7:06, прослушав первые две песни: “Beetlebum”, очень напоминающую Beatles, и “Song 2”, по звуку напоминающую Nirvana, а по настроению противоположную ей. Среди остальных 12 песен также немало сюрпризов. Несмотря на то, что звучание Blur сильно изменилось, они умудрились остаться собой. Необходимо отметить и особое усердие Грэма Коксона в игре на гитаре, в результате чего она издавала немыслимые звуки. Помимо похвал музыкантам, добрые слова хочется сказать в адрес продюсера Стивена Стрита, который смог придать своеобразное звучание как альбому, так и голосу Дэймона Элборна. В результате все получилось громко, мощно и достойно. В начале 1998 года в студии Элборна 13 (отсюда и название) была начата работа над новым альбомом группы. Музыканты сразу отказались от услуг Стивена Стрита, который продюсировал все альбомы Blur до этого. Они посчитали, что научились у него всему, чему могли. Нужно было что-то менять. Еще не подыскав продюсера, они решили записать три песни с Уильямом Орбитом, с которым они познакомились благодаря его ремиксам песен группы для сборника “Bustin & Dronin”. Работать с ним было настолько интересно, что, в конце концов, решили продолжать вместе до конца. Впервые за время существования группы музыканты записывали все вместе, подолгу импровизируя в полном составе. Надо отдать должное таланту, работоспособности и фанатизму Уильяма Орбита, который записывал все, включая перерывы на чай, а затем часами просиживал, прослушивая горы всего этого, отбирая самое лучшее. “13” весь пронизан темой расставания Элборна, который является основным автором песен групп, с вокалисткой Elastica Джастин Фришман. Этим во многом объясняется его депрессивный характер. Причем налицо необычная эволюция Элборна как автора текстов. Если обычно музыканты сначала пишут песни о чем-то личном и лишь потом переходят на какой-то более глобальный уровень, то у Дэймона все наоборот: он начал с общего и теперь пишет песни о личных чувствах и переживаниях. "Альбом целиком написан от первого лица. Все в большей степени касается души и личных переживаний. Теперь писать об этом легче. Я больше не боюсь этого, а в музыке сейчас намного больше пространства. С этим альбомом мы далеко продвинулись вперед и чувствуем себя гораздо лучше", - сказал Дэймон Элборн. dB 2000-ый год был богат на события: Дэймон Элборн был занят записью в Лондоне нового материала с известным хип-хоп продюсером Дэном Накамурой (вы уже догадались к чему это привело), второй сольный альбом гитариста Blur, Грэма Коксона, “The Golden D” вышел 12 июня, а 16 октября появился новый сингл от группы – “Music Is My Radar”, который вошел в коллекцию лучших вещей Blur. Кроме того Деймон успел все в том же 2000 году записать пять композиций для фильма с Кэвином Спейси “Обыкновенный преступник” (“Ordinary Decent Criminal”). Что же касается будущего группы Деймон Элборн, пошутив, сказал, что сейчас в группе все общение происходит исключительно "записками", и на полном серьезе добавил что, по его мнению "вполне возможно возвращение к концертной деятельности" с выходом нового альбома и "я с нетерпением жду того момента, когда смогу поиграть новый материал". По его мнению, играть в Blur это не работа, а скорее "больше похоже на призвание". В планах участников коллектива вернуться в студию под конец 2001 года ... vessel В марте 2001 года во всех музыкальных новостях появилась информация о том, что новый альбом Blur будет написан в сотрудничестве с Норманом Куком (Fatboy Slim). И самое интересное то, что так оно, в конце концов, и вышло, несмотря на различные слухи и домыслы. Кроме работы над новым альбомом участники группы параллельно продолжали заниматься своими проектами. Так, Дэймон с головой ушел в проект Gorillaz, который набирал силу и приобретал все большую популярность не только в старом свете, но и за океаном. В конце марта 2001 года выходит дебютный альбом Gorillaz “Gorillaz”. Грэм записывает свой третий альбом, который выходит в августе “Crow Sit On Blood”, а Алекс работает вместе с Софи Эллис-Бэкстор (Sophie Ellis-Bextor) над ее первым альбомом. Следующий 2002 год стал для группы, пожалуй, самым скандальным. Начиная с августа, название группы и имена Дэймон и Грэм не сходили с обложек музыкальных газет и журналов. “Группы Blur больше нет”, “Fatboy Slim заявил, что Грэм Коксон ушел из Blur”, “Грэм уволен из группы”… Что же произошло на самом деле? Существовали две версии происходящего: одна версия исходила от самого Грэма, другая – от группы. Обе можно назвать официальными. Как признавался Грэм в различных интервью, его не устраивал тот факт, что группа работает с Норманом Куком, и что звучание группы сильно меняется. Коксону хотелось слышать в новых песнях “тяжелые гитарные партии”. Здесь его мнение расходилось с мнением продюсера группы. И Коксон просто не появлялся в студии. В один “прекрасный” день его уволили из группы. Для Грэма это было настоящим шоком. Вторая версия была от Дэймона: “Грэм не появлялся в студии и даже не предупреждал нас об этом. Он практически не принимал участия в записи нашего альбома “Think Tank”. Получается, что Грэма уволили за нарушение трудовой дисциплины, а проще – за прогул. Но чтобы там ни происходило на самом деле, и каким бы болезненным ни был разрыв, группа Blur уже не будет прежней, теперь это трио. Место гитариста в группе свободно, а Дэймон и по сей день надеется, что Грэм вернется в группу. Но, похоже, у Грэма Коксона совсем другие планы, в октябре 2002 года он выпускает свой четвертый сольный альбом “The Kiss Of Morning”. За четвертым следует пятый альбом, который он начал записывать уже в июне 2003 года. Синглы “Freakin’ Out” и “Bittersweet Bundle Of Misery”, которые вышли в 2004 году получают очень положительные отзывы критиков и неплохие места в английских чартах. Его новый альбом “Happiness In Magazines” выходит в мае 2004 года и попадает в 20-ку Великобритании. Этот альбом признан его лучшим альбомом на сегодняшний день. А что же группа? Blur выпускают свой седьмой альбом “Think Tank” в мае 2003 года. Альбом сразу попадает на первое место, однако, через восемь недель покидает Top 75. Но, несмотря на это, “Think Tank” получает положительные оценки как в прессе, так и у поклонников. Журнал “Q” признает этот альбом лучшим за 2003 год. Кроме работы в Blur, Дэймон продолжает сотрудничать с проектом Gorillaz. Их новое творение “Demon Days” появляется в мае 2005 года и занимает 1 место в Великобритании и 6 место в США. В последних новостях говорится о том, что Blur начинает работу над новым альбомом, Дэймон чувствует “огромную пустоту” в группе без Грэма и надеется, что гитарист вернется, а сам Коксон заканчивает запись своего нового альбома, выход которого намечен на осень 2005 года и, похоже, не собирается возвращаться. Вот такая история... 12 декабря Blur заявили о своём воссоединении. 2 и 3 июля 2009 года в Лондонском Гайд-Парке прошли их концерты в рамках тура воссоединения. В эксклюзивном интервью NME Дэймон и Грэм рассказали, что сумели уладить все противоречия и надеются играть вместе в 2009. "Мы чувствуем, что это правильно," - говорит Албарн о реюнионе группы. - "Так или иначе, нам кажется, что у нас есть шанс сделать что-то новое, мы не совсем бесполезны и бессмысленны, у нас есть причина существовать." На закрытии Олимпиады-2012 в Лондоне ожидается последнее выступление группы. The Magic Whip — восьмой студийный альбом группы Blur, изданный 27 апреля 2015 года. Первый студийный альбом группы за 12 лет после "Think Tank" 2003 года и первый за 16 лет альбом после альбома "13", где в качестве гитариста выступает Грэм Коксон. Надпись на обложке альбома представляет собой перевод на китайский названия группы (буквально: неясный, расплывчатый, размытый) и альбома (буквально: «волшебный хлыст»), стилизованные под неоновые вывески. Заявление о выпуске нового альбома было сделано 19 февраля 2015 года, в первый день китайского нового года, на пресс-конференции в одном из китайских ресторанов Лондона. В тот же день группа выложила видео к песне «Go Out». Большинство песен, вошедших в альбом, были записаны в 2013 году в Гонконге, и атмосфера города, как подчеркнул Деймон Албарн, оказала большое влияние на создание альбома. По его словам, альбом по стилю похож на творчество Дэвида Боуи середины 70-х годов. Композиция «Pyongyang» («Пхеньян») повествует о впечатлениях Албарна от посещения Северной Кореи Скрыть...
Популярные аккорды Blur:
алфавиту | просмотрам | случайно
  • Всё лучше играть квинтами:
    
    A-A-G-G-G--C-C(8)-D(10)-E(12)EEE
    
    I got my head checked
    By a jumbo jet
    It wasnґt easy but nothing is
    No
    
    Woo-hoo
    When I feel heavy metal
    Woo-hoo
    And I´m pins and Iґm needles
    Woo-hoo
    Well I lie…
  • e----4-----------------
    B--7--5-0-0-0----------
    
    Guitar Fill 2:
    e----------------------
    B----------------------
    G-4-4-6-6-6------------
    
    Guitar Fill 3: (for 12 in this fill, bend a quarter tone)
    
    B--12-10-9-------------
    G----------9-----------
    
    Guitar…
  • A	   C
    Beetlebum, what you done?
    
    F	     G
    She´s a gun, now what you done?      
    
    Bb
    Beetlebum
    
    A	          C
    Get nothing done, you beetlebum
    
    F	       G	
    Just get numb, now what you done 
    
    Bb		A
    Beetlebum…
  • Intro:
    
    D#|-0-0-3-2-0--1---1-1-1-|
    Bb|-0-0-0-0-0--1---1-1-1-|
    F#|-0-0-0-0-0--0---0-0-0-|
    C#|-2-2-2-2-2--3---3-3-3-|
    G#|-2-2-2-2-2--3---3-3-3-|
    D#|-0-0-0-0-0--1---1-1-1-|
    
    G               Bm/F#
    Sad, drunk, and poorly
    Cmaj7…
  • Riff:
    Bb B
    ---------------1----2-----
    ---------------3----4-----
    ---------------3----4-----
    -------030-----3----4-----
    ---012-----01--1----2-----
    -0-------------x----x-----
    
    
    This spoken part is just E and A. (E EE EE EA…
  • Intro/Keyboards in background
    e|---------------------------------|---------------------------------|
    B|---------------------------------|---------------------------------|
    G|---------------------------------|---5---5---5---5---5---5---5---5-|
    D|---5---5---5---5---5---5---5---5-|---------------------------------|
    A|---------------------------------|-3---3---3---3---3---3---3---3---|
    E|-3---3---3---3---3---3---3---3---|---------------------------------|
    
    
    
    e|---------------------------------|----------------------------------|
    B|---------------------------------|----------------------------------|
    G|---------------------------------|---8---8---8---8---8---8---11--10-|
    D|---3---3---3---3---3---3---3---3-|----------------------------------|
    A|---------------------------------|-6---6---6---6---6---6---9---8----|
    E|-1---1---1---1---1---1---1---1---|----------------------------------|
    
    Kick…
  • INTRO
    
    D
    
    VERSE
    
    D
    It's automatic (It's automatic)
    
    E7
    I need to unload (Need to unload)
    
    Dm
    Under the pressure (Under the pressure)
    
    D
    Gone middle of the road (Middle of the road)
    
    Fall into fashion (Fall into fashion)
    
    E7
    Fall…
  • Intro:
    
    E --------------------0----------------h-p-----------------
    B ----0-2-0-------0-2---1/2---------2-2-3-2---------3-1/2--
    G --2-------2-2-2-----------2---2-----------1---1-1-1-1/2--
    D ----------------------------2-------------2--------------
    A…
  • Intro:
    
    E|----------------------2-2-2-2-----------------|
    B|-2-2-2-2-2--2-2-2-2---3-3-3-3-3--3-h-p-h-p----|
    G|-2-2-2-2-2--2-2-2-2---2-2-2-2-2--2--4-2-4-2-5-| 4x
    D|-2-2-2-2-2--2-2-2-2---0-0-0-0-0--0----------3-|
    A|-0-0-0-0--------------------------------------|
    E|---------4--4-4-4-4---------------------------|
    
    Intro/verse…
  • Intro:
    | | | | | | | |
    |--------------------------------|--------------------------------|
    |-----b⁄-------------------------|-----b⁄-------------------------|
    |----1214---------b⁄-------------|----1214---------b⁄-------------|
    |----------------1214------------|----------------1214------------|
    |X-----------X-------------------|X-----------X-------------------|
    |------------------------151412--|------------------------151412--|
    
    |…
  • Intro and picking style for chords throughout song
    
    e ------3-------3---------3-------3------ --3-3-3-3---3---3--
    B --0-------0---------1-------1---------- (2x) ----------1---1----
    G ----0-------0---0-----0-------0---0----…
  • Intro bit.....E D B D E D B D
    
    E D
    You've taken the fun
    B
    Out of everything
    E D
    You're making me run
    B
    When I don't want to think
    E D
    You've taken the fun
    B
    Out of everything
    E D B
    I don't want to think at all
    
    E D
    There's…
  • e/--8-00-5-----3----3----5-----5-4-------
    B/---------3-5---3----55---3-5-----------
    G/--------------------------------------- Guitar I
    D/--------------------------------------- Main Riff
    A/---------------------------------------
    E/---------------------------------------
    
    e/---------------------------------
    B/---------------------------------
    G/---------------------------------…
  • e|-----0-|
    B|---0---|
    G|-5-----| This clangy sound is put in the song in random places.
    D|-------|
    A|-------|
    E|-------|
    
    e|---------------------------------------------------|
    B|------------------------------------Play…
  • --6-6-5-5-4-3-3-3-3-------------------
    --8-8-7-7-6-5-5-5-5-------------------
    --8-8-7-7-6-5-5-5-5-------------------
    --------------------------------------
    --------------------------------------
    --------------------------------------…
  • G|--|--|--|-6-6-5-5-4-4-3-3-2-2-1-1-0-------|----------|---------|-------|
    D|--|--|--|---------------------------4-5-3-|----------|---------|-0-0---|
    A|--|--|--|---------------------------------|-0--0-----|-2-2-2-2-|-----4-|
    E|--|--|--|---------------------------------|------0-0-|---------|-------|
    
    G|---|----6-6-5-5-4-4-3-3-2-2-1-1-0-0-|----------|---------|---------|
    D|---|--------------------------------|----------|---------|-0-0-----|
    A|-4-|-4------------------------------|-0--0-----|-2-2-2-2-|-----4-4-|
    E|---|--------------------------------|------0-0-|---------|---------|
    
    G|----6-6-5-5-4-4-3-3--2-1-1-0-0-|----------|---------|---------|----6-|
    D|-------------------------------|----------|---------|-0-0-----|------|
    A|-4-----------------------------|-0--0-----|-2-2-2-2-|-----4-4-|-4----|
    E|-------------------------------|------0-0-|---------|---------|------|
    
    G|-6-5-5-4-4-----|---------|--------------------|-------------1-4-|-7-4-|
    D|-----------2---|---------|-2-0---0-2--------2-|-----0-2-2-2-----|-----|
    A|---------------|---------|-----4-----0--0-4---|-0-4-------------|-----|
    E|-------------0-|-0-0-0-0-|--------------------|-----------------|-----|
    
    G|-----5-2--|------5-2----------|-2------------|-------------1-4-|-7-4-|
    D|-0-0------|-0--0------------2-|---2--------2-|-----0-2-2-2-----|-----|
    A|----------|----------0--0-4---|-----0--0-4---|-0-4-------------|-----|
    E|----------|-------------------|--------------|-----------------|-----|
    
    G|-----5-2--|----------|-2-1------|---------|---------|--------6-6-5-5-|
    D|-0-0------|--------2-|----------|---------|-----0-0-|----------------|
    A|----------|-0--0-4---|-----0--0-|-----2-2-|-2-2-----|-4-4-4----------|
    E|----------|----------|----------|-0-0-----|---------|----------------|
    
    G|-4-4-|-3-3--2-1-1-0-0------|---------|---------|--------6-6-5-5-4-4-|
    D|-----|---------------------|---------|-----0-0-|--------------------|
    A|-----|----------------0--0-|-----2-2-|-2-2-----|-4-4-4--------------|
    E|-----|---------------------|-0-0-----|---------|--------------------|
    
    G|---------|---------------|------------------|-----1-4-7-4-|-----5-2-|
    D|-2-------|-----2-0---0-2-|--------2-----0-2-|-2-2---------|-0-0-----|
    A|---------|---------4-----|-0--0-4---0-4-----|-------------|---------|
    E|---0-0-0-|-0-0-----------|------------------|-------------|---------|
    
    G|------5-2-|----------2---|----------------------1-4-7-4-|-----5-2----|
    D|-0--0-----|--------2---2-|--------2-----0-2-2-2---------|-0-0------0-|
    A|----------|-0--0-4-------|-0--0-4---0-4-----------------|------------|
    E|----------|--------------|------------------------------|------------|
    
    G|----5-2-|--------------|---------|-------------|--------------|-------|
    D|--0-----|--------2-----|---------|-------------|-------2------|-------|
    A|--------|-0--0-4-------|---------|-------------|---------0--0-|-----2-|
    E|--------|----------0-0-|-0-0-0-0-|-0-0-0-0-0-0-|-0-0-0--------|-0-0---|
    
    G|---|---------|--------6-6-5-5-4-4-|-3-3-2-2-1-1-0-0------|---------|
    D|---|-----0-0-|--------------------|----------------------|---------|
    A|-2-|-2-2-----|-4-4-4--------------|-----------------0--0-|-----2-2-|
    E|---|---------|--------------------|----------------------|-0-0-----|
    
    G|---------|--------6-6-5-5-4-4-|-3-3-2-2-1-1-0-0---|---|---|
    D|-----0-0-|--------------------|-------------------|---|---|
    A|-2-2-----|-4-4-4--------------|-----------------0-|-0-|-0-|
    E|---------|--------------------|-------------------|---|---|
    
    G|--|--|--|----------|-------------1-4-|-7-4-----5-2--|------5-2------|
    D|--|--|--|--------2-|-----0-2-2-2-----|-----0-0------|-0--0----------|
    A|--|--|--|-0--0-4---|-0-4-------------|--------------|----------0--0-|
    E|--|--|--|----------|-----------------|--------------|---------------|
    
    G|-----|-2------------|--------------1-4-|-7-4-----5-2--|------5-2------|
    D|---2-|---2--------2-|------0-2-2-2-----|-----0-0------|-0--0----------|
    A|-4---|-----0--0-4---|-0--4-------------|--------------|----------0--0-|
    E|-----|--------------|------------------|--------------|---------------|
    
    G|-----|-2------------|--------------1-4-|-7-4-----5-2--|------5-2------|
    D|---2-|---2--------2-|------0-2-2-2-----|-----0-0------|-0--0----------|
    A|-4---|-----0--0-4---|-0--4-------------|--------------|----------0--0-|
    E|-----|--------------|------------------|--------------|---------------|
    
    G|-----|-2------------|-------------1-4-|-7-4-----5-2--|------5-2------|
    D|---2-|---2--------2-|-----0-2-2-2-----|-----0-0------|-0--0----------|
    A|-4---|-----0--0-4---|-0-4-------------|--------------|----------0--0-|
    E|-----|--------------|-----------------|--------------|---------------|
    
    G|-----|-2-----|--|--*-|
    D|---2-|---2---|--|--*-|
    A|-4---|-----0-|--|--*-|
    E|-----|-------|--|--*-|…
  • Intro:
    
    E|------------------------------------------------|
    B|------------------------------------------------|
    G|------------------------------------------------|
    D|------------------------------------------------|
    A|----------------------------------------5--7----|…
  • Intro/verse:
    
    G -66-XX-44-XX-66------------
    D -66-XX-44-XX-66-444444444--
    A -44-XX-22-XX-44-444444444--
    E ----------------222222222--
    
    Pre-chorus:
    
    G -6-6-3-3-8-8-4-4--6-6-3-3-8-8-4-4--66-33-88-44--
    D -6-6-3-3-8-8-4-4--6-6-3-3-8-8-4-4--66-33-88-44--
    A…
  • C# F# C# F#
    You know you do not lean before me
    
    C# F# C# G#
    You're just in my head dear can't you see
    
    C# F# C# F#
    I don't want to be with you anymore
    
    C# F# C# G#
    You're just a head dear oh no
    
    
    
    C# G# F# C#
    I look at me…
  • Intro: D F A C D A (2x)
    
    D F A
    A fervoured image of another world
    
    C D A
    Is nothing in particular now
    
    D F A
    And imitation comes naturally
    
    C D A
    But I never really stopped to think how
    
    D F A
    And everyone is a clever clone
    
    C…
  • Bugman:
    Intro:Bb F# G# F# G#
    
    Bb F# G# F# G#
    I am an ex offender
    
    Bb F# G# F# G#
    They let me out in the summer
    
    Bb F# G# F# G#
    I think I was in a coma
    
    Bb F# G# F# G#
    I didn't know what to do
    G#
    Oh no
    
    Chorus:
    
    C# E
    You…
  • Bb Ab F            riff 1
     At the music heist 
    
    Bb F Eb            riff2 
    I met the gourmet man 
    
    Bb Ab F            riff 1
     With aluminium lungs
    
    Bb F Eb            riff2       
    Sucks out all he can
    
    Bb Ab F…
  • D
    I've got a brain in a lefthand drive
    G
    I don't sleep other side
    D
    I ride a bullet like I'm Steve McQueen
    G
    Each town, I intervene
    D
    A gram of keef and the barn is jumping
    G
    It's alright, we got time
    D
    Got a radio hit in…
  • A
    The weekend is back
    F F7
    But so is he
    C
    Head to the floodlights
    G
    See the fraternity
    D
    They are waiting
    A
    I hear them up in the north
    F F7
    And down in the south
    C
    And all that is spewing
    G D
    Spewing out of his mouth
    
    Chorus…
  • Intro: Guitar out/Keyboard intro
    4x
    |----------------|
    |----------------|
    |----------------|
    |----------------|
    |----------------|
    |----------------|
    
    Verse:
    G F
    Riff A-----------------------------------------------|
    |------3----/5-5-5-5-5----|------3--------------------|
    |------3----/6-6-6-6-6----|------3--------------------|
    |------4----/5-5-5-5-5----|------4--------------------|
    |-5-----------------------|-5-------------------------|
    |-5-----------------------|-5-------------------------|
    |-3-----------------------|-3-------------------------|
    |…
  • INTRO
    
    G G/F# Em Em w/D
    Good morning, lethargy
    
    F C Am
    Drink pepsi is good for energy
    
    G G/F# Em Em w/D
    The bath's on, smoke in the bedroom
    
    F C Am
    Sore throat and on my neck a nasty bruise
    
    D
    Where it came from, well I…
  • VERSE 1
    -------------------------------------------
    -----2-----0-----2-----3-----2-----0-----2-
    -----2-----0-----2-----3-----2-----0-----2-
    ---2-----0-----2-----3-----2-----0-----2---
    -0-----------0-----1-----0-----------0-----
    -------3-----------------------3-----------
    I…
  • Intro A C#m7 (tihs is one bar, the intro isfour bars long)
    
    A                   C#m7
    This is the next century
    A                C#7
    The universal is free
    E               B
    You can find it anywhere
    E        B
    Yes,…
  • C Bbm7
    Ernold Same awoke from the same dream
    
    C Bbm7 C
    In the same bed at the same time
    
    Am
    Looked in the same mirror
    
    Eb
    Made the same frown
    
    G7
    And felt the same way as he did every day,
    
    C Bbm7
    Then Ernold Same caught…
  • VERSE
    
    B E F#7
    Holy man tiptoed his way across the Ganges
    
    B E F#7
    The sound of magic music in his ears
    
    B A E F#7
    Videoed by a bus load of tourists
    
    B E F#7
    Shiny shellsuits on, and drinking lemonade.
    
    Now, I've got a funny…
  • INTRO
    
    Ab Db C B Ab B Bb A x2
    
    VERSE
    
    Ab Fm Ab Fm Ab Fm
    He makes an inner arm block
    
    Fm Ab Fm Ab
    Then kicks from behind
    
    Fm Ab Fm Ab
    The lights, they go off
    
    Fm Ab Fm Ab Bb
    But he can fight blind
    
    Bb Db Bb Db Bb
    Cos he got…
  • G: (355433) C:(x32010) Eb : (xx1043)
    F6 : (xx3231) G-F#: (2554xx) D : (xx0232)
    F-A : (x03211) Em : (022000) Bm7 : (x24232)
    Fmaj7sus2 : (xx3010) G-D : (xx0003) Am7 : (x02010)
    
    G F6 F-A Fmaj7sus2 G F6 C
    E|-----15-13--------13--------------15-13-------8--|
    B|-----15-15--------13--13----------15-15-------8--|
    G|-16--------14-14----------12---16--------14---9--|
    D|----------------------14----------------------10-|
    A|-------------------------------------------------|
    E|-------------------------------------------------|
    
    G…
  • D
    All those dirty words
    Em
    They make us look so dumb
    D
    Been drinking far too much
    Em
    And neither of us mean what we say
    
    Gb Ab
    You and I
    Gb Ab
    Collapsed in love
    Dsus4 D E
    And it looks like we might have made it,
    G9 A
    yes…
  • E|-------------------|--------------|----------------|
    B|-------------------|--------------|----------------|
    G|-------------------|--------------|----------------|
    D|--2---2---0---0---0|-----2---2---0|---0---0--------|
    A|-------------------|--------------|----------------|
    E|0---0---2---2---2--|-2-0---0---2--|-2---2---2------|
    
    E|-------------------|--------------|----------------|
    B|-------------------|--------------|----------------|
    G|-------------------|--------------|----------------|
    D|--2---2---0---0---0|-----2---2---0|---0---0--------|
    A|-------------------|--------------|----------------|
    E|0---0---2---2---2--|-2-0---0---2--|-2---2---2------|
    
    E|-------------------|--------------|----------------|
    B|-------------------|--------------|----------------|
    G|-------------------|--------------|----------------|
    D|--2---2---0---0---0|-----2---2---0|---0---0--------|
    A|-------------------|--------------|----------------|
    E|0---0---2---2---2--|-2-0---0---2--|-2---2---2------|
    
    E|-------------------
    B|-------------------
    G|-------------------
    D|--2---2---0---0---0
    A|-------------------
    E|0---0---2---2---2--
    
    E|-------------------|--------------|----------------|----------
    B|-------------------|--------------|----------------|----------
    G|------------2---2--|-----0-----2--|-2--------------|----------
    D|---2---2--3---3----|---2---2-3---3|----------------|----------
    A|-------------------|--------------|----------------|----------
    E|-0---0----2--------|-0------------|----------------|----------
    
    
    
    
    
    E|-------------------|--------------|----------------|----------
    B|-------------------|--------------|----------------|----------
    G|-----0------2---2--|-----0-----2--|-2--------------|----------
    D|---2---2--3---3----|---2---2-3---3|----------------|----------
    A|-------------------|--------------|----------------|----------
    E|-0-----------------|-0------------|----------------|----------
    
    
    E|-------------------|--------------|----------------|----------
    B|-------------------|--------------|----------------|----------
    G|------------2---0--|--------------|-0-----0-----0--|----------
    D|---2---2--3---3----|---2---2----3-|-----3-----3----|----------
    A|-------------------|----------5---|---5-----5------|----------
    E|-0---0----2--------|-0---0--------|----------------|----------
    
    
    
    
    E|-------------------|--------------|----------------|----------
    B|-------------------|--------------|----------------|----------
    G|------------2---0--|-----------2--|-2-------0-----0|-----0----
    D|---2---2--3---3----|---2---2-3---3|-------3-----3--|---3------
    A|-------------------|--------------|-----5-----5----|-5--------
    E|-0---0----2--------|-0---0--------|---0------------|----------
    
    
    E|-------------------|--------------|----------------|----------
    B|-------------------|--------------|----------------|----------
    G|------------2---0--|--------------|-0-----0-----0--|----------
    D|---2---2--3---3----|---2---2----3-|-----3-----3----|----------
    A|-------------------|----------5---|---5-----5------|----------
    E|-0---0----2--------|-0---0--------|----------------|----------
    
    E|-------------------|--------------|----------------|----------
    B|-------------------|--------------|----------------|----------
    G|------------2---0--|-----------2--|-2-------0-----0|-----0----
    D|---2---2--3---3----|---2---2-3---3|-------3-----3--|---3------
    A|-------------------|--------------|-----5-----5----|-5--------
    E|-0---0----2--------|-0---0--------|---0------------|----------
    
    
    
    E|-------------------|-1---------1----|-17-16-15-14----|--------
    B|-------------------|-1---------1----|----------------|--------
    G|-5-5-5-7-7-7-5-5-5-|-2-5-5-5-5-2----|----------------|--------
    D|-5-5-5-7-7-7-5-5-5-|-3-5-5-5-5-3----|----------------|--------
    A|-3-3-3-5-5-5-3-3-3-|-3-3-3-3-3-3----|----------------|--------
    E|-------------------|-1---------1----|----------------|--------
    
    E|-------------------|-------------|----------------|----------
    B|-------------------|-------------|----------------|----------
    G|-5-5-5-5-5-5-5-5-5-|------7------|-7--------------|---------
    D|-5-5-5-5-5-5-5-5-5-|------7------|-7--------------|---------
    A|-3-3-3-3-3-3-3-3-3-|------5------|-5--------------|---------
    E|-------------------|-------------|----------------|----------
    
    E|-------------------|-1---------1----|-17-16-15-14----|--------
    B|-------------------|-1---------1----|----------------|--------
    G|-5-5-5-7-7-7-5-5-5-|-2-5-5-5-5-2----|----------------|--------
    D|-5-5-5-7-7-7-5-5-5-|-3-5-5-5-5-3----|----------------|--------
    A|-3-3-3-5-5-5-3-3-3-|-3-3-3-3-3-3----|----------------|--------
    E|-------------------|-1---------1----|----------------|--------
    
    E|-------------------|-------------|----------------|----------
    B|-------------------|-------------|----------------|----------
    G|-5-5-5-5-5-5-5-5-5-|------7------|-7--------------|---------
    D|-5-5-5-5-5-5-5-5-5-|------7------|-7--------------|---------
    A|-3-3-3-3-3-3-3-3-3-|------5------|-5--------------|---------
    E|-------------------|-------------|----------------|----------
    
    solo
    
    E|-------------------|--------------|----------------|
    B|-5-8-10-12-12-5-8--|5-------------|-----------5-5--|
    G|-------------------|--5-7-------9-|-7-5-4-4-4------|
    D|-------------------|------5-7-----|----------------|
    A|-------------------|----------7---|----------------|
    E|-------------------|--------------|----------------|
    
    E|-------------------|--------------|----------------|
    B|-5-8-10-12-12-5-8--|5-------------|----------------|
    G|-------------------|--5-7-------9-|-7-5-4-4-4------|
    D|-------------------|------5-7-----|----------------|
    A|-------------------|----------7---|----------------|
    E|-------------------|--------------|----------------|
    
    
    E|-------------------|-1---------1----|-17-16-15-14----|--------
    B|-------------------|-1---------1----|----------------|--------
    G|-5-5-5-7-7-7-5-5-5-|-2-5-5-5-5-2----|----------------|--------
    D|-5-5-5-7-7-7-5-5-5-|-3-5-5-5-5-3----|----------------|--------
    A|-3-3-3-5-5-5-3-3-3-|-3-3-3-3-3-3----|----------------|--------
    E|-------------------|-1---------1----|----------------|--------
    
    E|-------------------|-------------|----------------|----------
    B|-------------------|-------------|----------------|----------
    G|-5-5-5-5-5-5-5-5-5-|------7------|-7--------------|---------
    D|-5-5-5-5-5-5-5-5-5-|------7------|-7--------------|---------
    A|-3-3-3-3-3-3-3-3-3-|------5------|-5--------------|---------
    E|-------------------|-------------|----------------|----------
    
    E|-------------------|-1---------1----|-17-16-15-14----|--------
    B|-------------------|-1---------1----|----------------|--------
    G|-5-5-5-7-7-7-5-5-5-|-2-5-5-5-5-2----|----------------|--------
    D|-5-5-5-7-7-7-5-5-5-|-3-5-5-5-5-3----|----------------|--------
    A|-3-3-3-5-5-5-3-3-3-|-3-3-3-3-3-3----|----------------|--------
    E|-------------------|-1---------1----|----------------|--------
    
    E|-------------------|-------------|----------------|----------
    B|-------------------|-------------|----------------|----------
    G|-5-5-5-5-5-5-5-5-5-|-------------|-5--------------|---------
    D|-5-5-5-5-5-5-5-5-5-|-------------|-5--------------|---------
    A|-3-3-3-3-3-3-3-3-3-|-------------|-3--------------|---------
    E|-------------------|-------------|----------------|----------…
  • INTRO
    
    E|---------------------------------------------------------------------|
    B|-------H----15-----H----15----------15------------H----15---15----15-|
    G|-----14/16-------14/16--------16----------16----14/16----------16----|
    D|---------------------------------------------------------------------|
    A|---------------------------------------------------------------------|
    E|---------------------------------------------------------------------|
    
    E|------------------------------------------------------------|
    B|----------15-----------H----15-----------15--------15-------|
    G|----16--------16-----14/16---------16--------16----------16-|
    D|------------------------------------------------------------|
    A|------------------------------------------------------------|
    E|------------------------------------------------------------|
    
    REPEAT
    
    VERSE
    
    Em
    E|-------------------------------------------------------|
    B|--12---12---12---12---12---12---12---12---12---12---12-|
    G|-------------------------------------------------------|
    D|---9----9----9----9----9----9----9----9----9----9----9-|
    A|-------------------------------------------------------|
    E|-------------------------------------------------------|
    
    E|----------------------------------------------------|
    B|----X--12-12-12-12-12---12---12⁄---X----X----X----X-|
    G|-----------------------------12⁄--------------------|
    D|----X---9--9--9--9--9----9---12⁄---X----X----X----X-|
    A|----------------------------------------------------|
    E|----------------------------------------------------|
    
    E|-------------------------------------------------19------19---|
    B|-----------------------------------------------15--15--15--15-|
    G|---------------------------------------------16------16-------|
    D|----BEND…
  • INTRO
    
    A F#m x11
    
    
    VERSE
    
    A
    
    F#m
    I remember thinking murder in the car
    
    A F#m
    Watching dogs somersault through sprinklers on tiny lawns
    
    G#m
    I remember the graffiti
    
    Bm
    We are your children coming in with spray cans of paint
    
    A
    I…
  • G A Db Eb
    I am the message centre
    G A Db Eb
    Local and direct
    G A Db Eb
    Room to room an operator (no calls today dear, they'll just have to wait dear)
    G A Db Eb
    I call and I collect (so just strike him softly away from the…
  • B (x3)
    
    C#min B A B G# G
    He's a twentieth century boy, with his hands on the rails
    
    F C D F Fmaj7 E G
    Trying not to be sick again and holding on for tomorrow
    
    C#min B A B
    London ice cracks on a seamless line,
    
    G#min Gdim5
    He's…
  • B                Abm
    Mr. Robinson and his quango
    
       G
    Dirty dealer, expensive car
    
       A
    Runs the buses and the evening star
    
             B                     Abm
    He got a hair piece and he got herpes
    
       G
    His…
  • (main)
    
    e -------------------------
    B ------------------4------
    G ----------------4---4----
    D -----h---h--2-4-------4--
    A --2-0-2-0-2--------------
    E -------------------------
    
    B A E
    Sitting in an S.D.T. waiting for an underground…
  • B7
    The suburbs they are dreaming
    
    
    They are a twinkle in her eye
    
    Abm                G
    She's been feeling frisky
    
                F#
    Since her husband said goodbye
    
    B7
    She wears a low cut t-shirt runs a little B&B
    
           Abm…
  • INTRO
    Em, A, Bm, A, Em
    
    
    VERSE  
    Em  A, Bm, A, Em
    
    I can't feel...
    
    CHORUS
    G  F  G
       Ahhhaaaaaa
     
    C           
    Sing to me
    
    F  G
    Ahhhhh
    
    C
    Sing to me
    
    
    ENDS 
    Em
    
    *You can add D between Bm & A in the intro & verse; it just…
  • G		B	     A
    Sunday, Sunday here again in tidy attire
    You read the colour supplement, the TV guide
    
    (after the A chord, play the following fill)
    
    e -----------
    B --4p2-4p2--
    G -----------
    D -----------
    A -----------
    E -----------…
  • Th song starts with chords Maj7 like this:
    
    A A# B A B A# F
    e|-0-0--0--0---0-0--0--0--0--|
    b|-5-5--6--8---5-5--8--5--1--|
    g|-6-6--7--9---6-6--9--6--2--|
    d|-7-7--8--10--7-7--10-7--3--|
    a|-7-7--8--10--7-7--10-7--3--|
    E|-0-0--0--0---0-0--0--0--0--|
    
    These…
  • C F#m C F#m
    They stumbled into their lives
    
    C F#m C F#m
    In a vague way became man and wife
    
    B Abm B Abm
    One got the other they deserved one another
    
    C F#m C F#m
    They settled in a brand new town
    
    C F#m C F#m
    With people from…
  • Gm7 A Gm7 A
    (Tracy Jacks) works in civil service
    Gm7 A Gm7 A
    (Tracy Jacks) its steady employment
    B A B A
    (Tracy Jacks) is a golfing fanatic
    B A B A
    (Tracy Jacks) But his put is erratic
    Gm7 A Gm7 A
    (Tracy Jacks) saw a Harley…
  • Intro:
    G6 A B7 D
    
    e|----------------------|R e|----------------------|R
    B|----------------------|I B|----------------------|I
    G|----------------------|F G|----------------------|F
    D|--------7-------------|F D|----------------------|F
    A|-5-4-5----4-5-4-5/7---|1…
  • C Bb Am G D E7
    Churchill got his lucky number
    
    Am
    But tomorrow there's another
    
    G G+
    Could be me could be you
    
    C Bb Am
    No silver spoon
    
    G D E7
    Sticky teeth they rot too soon
    
    Am D
    You've got to have the best tunes
    
    G G+
    Or…
  • Bm
    Moscow's still red
    
    F#
    The young mans dead
    
    D
    Gone to heaven instead
    
    C Em C Em
    The evening news says he was confused
    
    Bm F#
    The motorways will all merge soon
    
    D
    Lottery winner buys the moon
    
    C Em
    They've come to save…
  • Intro:
    d/-----------------------------------------------
    A/-----------------------------------------------
    F/-----------------------------------------------
    C/-11^---8^-----------11^---8^-----------11^--8^-
    G/-12^---9^-----------12^---9^-----------12^--9^-
    D/-----0----0-0-0-0-0-----0----0-0-0-0-0----0----
    
    d/-------------------------------------------
    A/------------------12-12-12-12-12-12-12-12--
    F/------------------13-13-13-13-13-13-13-13--
    C/-------------------x-x--x--x--x--x--x--x---
    G/------------------11-11-11-11-11-11-11-11--
    D/-0-0-0-0-0-0-0-0---------------------------
    
    Tab…
  • A7 G7 A7 G7
    Meanie leanie come on down
    
    A7 G7 A7 G7
    Come and entertain the town
    
    A7 G7 A7 G7
    It's Friday night and we're all bored
    
    A7 G7 A7 G7
    Times been called there is no more
    
    A7 G7 A7 G7
    Times been called it's such…
  • B A
    I always knew that there would be
    
    D C#
    Someone somewhere
    
    B A F# E
    Who had it in for me
    
    B A
    I always knew that there would be
    
    D C#
    no one nowhere
    
    B A F# E (D-) 
  • G#m B
    What if I told you I loved you
    
    C#m E
    What if I court you in rhyme
    
    G#m A
    In this world there's nothing left
    
    B
    Well nothing that's new
    
    G#m B
    What if I told you without you
    
    C#m E
    Loving is simply a lie
    
    G#m A
    I'm…
  • A G
    Grandma has new dentures
    A G
    To eat the crust of pizza
    A G
    Been taken out by her daughter
    A G
    Because she thought she ought'a
    A G
    The kids are eating snickers
    A G
    Because they're so delicious
    A G
    Then there's sticky…
  • e/-------------------------------
    B/-------------------------------
    G/-------------------------------
    D/------------------------------- Intro I
    A/-------------------------------
    E/--2-2-2--2--2--2--2-2-2--2--2--
    
    e/-------------------------------
    B/-------------------------------
    G/-------------------------------
    D/------------------4-4-4--4--4--…
  • e-7--7--7-----5-5-5--5-5-5--5-5-5---
    B-7--7--7-----5-5-5--5-5-5--5-5-5---
    G-8--8--8-----6-6-6--6-6-6--6-6-6---  x2
    D-9--9--9-----7-7-7--7-7-7--7-7-7---
    A-9--9--9-----0-0-0--5-5-5--0=0=0---
    E-7--7--7-----x-x-x--x-x-x--x-x-x---
    
    little…
  • INTRO
    
    DSUS4 D Bb D Bb D
    
    VERSE
    
    Bb D
    All I want to be
    
    Bb D
    Is washed out by the sea
    
    Bb D
    No Death Star over me
    
    Bb D
    Won't give me any peace
    
    Bb D
    All I want is light relief
    
    Bb D
    Put the crazies on the street
    
    Bb D
    Give…
  • Intro: Am
    
    Am         D
    Going into business
    F#m             D
    An agreement of your bombast
    G#
    You'd love my bed
    Bm                   D     Dm
    You took the other instead
    Am                 D
    But don't you feel low
    F#m…
  • Main:
    p
    G ----------(3)/10-0--------------------------------------
    D ---------------------------------5------------p-h-------
    A -3-5--0-3----------0--3-5--0-5-7---0--3-5--0-3-0-3-2----
    E -----------------------------------------------------3--
    
    D…
  • e/---------------------------
    B/---------------------------
    G/--------------------------- Lead Guitar Intro
    D/---------------------------
    A/--6/8------6-----6---------
    E/-------6-8-----8---4-1-----
    
    
    e/--------------------
    B/--------------------
    G/--------------------…
  • Intro
    
    e|------------------------------------------
    B|------------------------------------------
    G|------------------------------------------
    D|------------------------------------------
    A|------------3---------3----------3--4---3-
    E|-------5/-------5/---------5/-------------
    
    Main…
  • Capo 1st Fret
    
    ------------
    Chords
    ------------
    
    D D/C# Bm A G Em F#m F#mmaj7/F C#m
    e|-2---------2---0---0---0---2---------------4------
    B|-3---3-----3---2---0---0---2---------------5------
    G|-2---2-----4---2---0---0---2---------------6------
    D|-0---x-----4---2---0---2---4-----3---------6------
    A|-----4-----2---0---2---2---4-----4---------4------
    E|-------------------3---0---2-----1----------------
    
    -----------
    Intro
    -----------
    
    D…
  • (A)A F#m B B D C B E B7
    
    (B)E E7 C#M/E C G Em/B C A
    
    B E B E B E E7
    
  • D E D Gm D
    St Louis song, something is wrong
    D E D Gm D
    Ill kill that clown, nothing much is down
    
    
    G D A G D A#
    and my cups are empty, you can look at each other like me
    
    
    D G A
    I dont want to be I dont want to be here…
  • MAIN RIFF (yes, the only guitar part)
    
    E|------------------------------------------------------------------------|
    B|-----10^------------10^--------------12-12-12-12-------12-12-12-10------|
    G|---------12-9-12-9------12-9-12-9----------------11----------------12-9-|
    D|------------------------------------------------------------------------|
    A|------------------------------------------------------------------------|
    E|------------------------------------------------------------------------|
    
    Not…
  • INTRO
    
    C Bm G F E B x2
    
    VERSE
    
    C Bm G
    Yeah, I found nowhere
    
    C Bb G
    It got to know me
    
    C Bm G
    Let me sleep all day
    
    C Bb G
    Spend the money
    
    C Bm G
    I haven't felt my legs
    
    C Bb G
    Since the summer
    
    C Bm G
    And I don't call…
  • Intro:
    
    B --1-0-- Dm G7
    G --2----
    D --2----
    
    Verses, etc.:
    
    G Am F
    
    G Am F G7
    
    
    C Dm C Dm C Dm C Dm
    
    C G7 Dm G Dm G
    
    Dm F
    
    
    G Am F
    
    G Am F G7
    
    C Dm C Dm C Dm C Dm
    
    C G7 Dm G Dm F
    
    Lyrics:
    
    Picked up the girl 
    And he sailed…
  • C Eb
    e-|-----------|-----------------------|
    B-|-----5-5-5-|-------------------8-8-|
    G-|-----5-5-5-|-------------------8-8-|
    D-|---5-------|---------5-6-7---8-----|
    A-|-3---------|-6-7-8-9---------------|
    E-|-----------|-----------------------|
    
    
    (Chorus)
    /---⁄…
  • INTRO: disto
    
    D# B
    --------------------------------
    --------------------------------
    -------------------------------- x2
    --5~~---------------------------
    -------2~~--2h4--2h4s6--4h6--4--
    --------------------------------
    
    VERSE1:
    
    D#5…
  • Intro:
    
    G --------------------------------
    D -------------------------------- 4
    A -(4)---------------------------- x
    E -----5--5-3--3-0-0-0-0-3-3-4-4--
    
    Verse:
    
    G ----------------------------
    D ----------------------------
    A…
  • C#m B A
    I'm on the white cliffs of Dover
    C#m E A
    Thinking it over and over
    C#m B A
    But if I jump its all over
    C#m E A B
    A cautionary tale for you
    
    (Verse 2: Same chords)
    I love to roll in the clover
    With you over and over
    On…
  • G /---⁄ /---⁄ /---⁄ /---⁄
    G-|---------------------------------------------|
    D-|-----5-----------5-----------5---------3-4-5-|
    A-|---------------------------------------------|
    E-|-3-------1-2-3-------1-2-3-------1-2-3-------|
    
    C…
  • verse
    ----------------------------------------------
    ----------------------------------------------
    -14/16-14/16--16------14/16-14/16--16---------
    ----------------------------------------------
    -12/14-12/14--14------12/14-12/14--14---------
    --------------0-0-0-0-0-0-0-0-0-0-0-0-0-0-0-0-
    repeat
    
    chorus
    ----------------------------------------------
    ----------------------------------------------
    -16b17r16-12-14b15r14-12-11--9----------------
    ----------------------------10----------------
    ----------------------------------------------
    ----------------------------------------------
    repeat
    
    outro
    ----------------------------------------------
    ----------------------------------------------
    ----------------------------------------------
    ----------------------------------------------
    -7-----9-11----9-----11-12-11----7------------
    -0-0-0-0-0-0-0-0-0-0-0-0-0-0-0-0-0-0-0-0-0----…
  • e|-1----------------------------1--1----------|
    B|---3-1-3-1-3----------------3--3---3-3------|
    G|-------------2/5-0-2--2----------------2-5b-| Lead Guitar Intro
    D|------------------------3-5-0---------------| (the rest…
  • VERSES:
    F F/G G A# A#/C C D D/D# D# D C C C
    e-1---1/3---3--6---6/8---8---10---10/11---11-10-8--8--8----
    B-1---1/3---3--6---6/8---8---10---10/11---11-10-8--8--9----
    G-2---2/4---4--7---7/9---9---11---11/12---12-11-9--9--9----…
  • A         C    A       E
    This is a public warning
    
       A       C    A       E
    Be careful when you are out
    
            G    D    Db   G
    We are having freaky weather
    
            A       C  A    E Eb D
    There's alot of it about
    
    A…
  • Intro:
    
    Em F# G G A
    E|-------0----------2-------------------0-----------------------|
    B|-------0--------2---2----------3--3-----3-----3/5-----5----5--|
    G|-----0--------3-------3------4------------4---4/6-----6----6--|
    D|---2------4-------------4--5------------------5/7---7---7---7-|
    A|-2------------------------------------------------------------|
    E|-0------------------------------------------------------------|
    
    E…
  • Intro: E F# (single notes vary in chords)
    
    
    E C Am
    It's my birthday no one here day
    
    A B
    Very strange day I think of you day
    
    E C Am
    Go outside day sit in park day
    
    A B
    Watch the sky day what a pathetic day
    
    A B
    I don't…
  • C# Bb F#
    Bill Barret has a simple dream
    C# Bb Eb
    He calls it his plan B
    C# Bb F#
    Where the buildings and the sky and the air is sugar free
    G# G#7
    And everyone is very friendly
    C# Bb F#
    Plan B arrived on holiday
    C# Bb Eb
    Took…
  • Intro:
    
    Bm C A
    E |----------------------------------------------------------------------|
    B |----------------------------------------------------------------------|
    G |----------------0---------------------------------------2----0---0---0|
    D…
  • C	 F
    All good people
    
         D#	       G#
    Your time will come
    
    C	F
    Work forever
    
        D#		 G
    And still not be done
    
    C	   A#
    Close your tired eyes
    
      		    G#
    No one knows you've gone
    
    C	    F
    It's not forever
    
          D#	   G
    But…
  • Intro multiple multiple
    E-----------------------------------|times----|-7-------|times-----||
    B------------------x----------------|---------|-8-------|----------||
    G---x-----------x-----x--------x----|---------|-7-------|----------||
    D------x-----x-----------x--x-------|---------|---------|-5--------||
    A-----------------------------------|---------|multiple-|-5--------||
    E-play…
  • G            D
    This is my work place
    C                 F        G
    And these are the people I work with
             D
    Yuko and Hiro
    C          G
    We work together
    G               D
    We work for the company
    C                F
    That…
  • F# C Bm
    The death of the party
    F# C Bm
    Came as no surprise
    F# C Bm
    Why did we bother
    F# C Bm
    Should've stayed away
    D
    Another night
    C Bm
    And I thought "Well, well"
    D
    Go to another party
    C Bm F#
    And plant myself gently on…
  • e/---------------------
    B/--3--3-3-3-3-3-3-3---
    G/--0--3-3-3-3-3-3-3--- Refrain (2:01-3:18)
    D/--0--3-3-3-3-3-3-3--- (x20)
    A/---------------------
    E/---------------------
    
    e/------------------
    B/------------------
    G/-5-5-5-5-5-5-5-5--…
  • It?s pointless to explain why ---
    There?s nothing I can say         |
    My words would all be meaningless | G
    Anyway ---
    
    It seems I can?t be trusted ---
    And I don?t disagree              |
    What made you ever think I really…
  • C           Am               C
    Bow bells say goodbye to the last train
    
             Am
    Over the river they all go again
    
    Dm       (BassC)  G     Dm     (BassC)
    Out into leafy nowhere hope someone
    
            F…
  • E ---------------------------------|
    B ---------------------------7-----|
    G -----------7-----------------7---|
    D -0-4-5-4-7---7---0-4-5-4-7-------|
    A ---------------------------------|
    E ---------------------------------|
    
    
    D…
  • VERSE
    
    Dm A Dm x4
    
    CHORUS
    
    Dm F#m Bb A x2
    
    VERSE
    
    Dm A Dm x4
    
    CHORUS
    
    Dm F#m Bb A x2
    
    END
    
    Dm A Dm x4
    
    end on Dm
    
  • e|---------|
    B|---------|
    G|---------| GUITAR I
    D|---------| (Play this from 0:13 up until the solo,
    A|-0-0-0-0-| after solo play until 1:50 and stop again)
    E|---------|
    
    e|---------9-7-9--5---7-----7-5-7-5--7-9--|
    B|--5----7----------7---5/7-------------7-|
    G|----------------------------------------|…
  • INTRO
    
    G Bb B C Bb G x2
    
    VERSE
    
    Gm
    I heard a man who had no lungs
    He took me in and made me lunch
    Told me how I'd lost a friend
    He smiled at me - that was the end
    
    And I said,
    
    
    CHORUS
    
    G Bb B
    I'm just a killer for your…
  • TUNING: E A D G
    
    
    Tablature by Eugenio Roveda "Gege" (giovanna.alzapiedi@fastwebnet.it)
    
    
    
    
    MAIN RIFF
    G|------------------------------------------------------------------
    D|------------------------------------------------------------------
    A|------------------------------------------------------------------
    E|--6-6-6-6-6-6-6--0/6-6-6-6-6-4-4--9-9-9-9-9-9-9-9--0/9-9-9-9-9-4--
    
    
    
    
    OUTRO…
  • F C
    |----------------------------------------------------------------------------
    |-----------------10---------------------------------------------------------
    |---------10----------10------10----------------------9----------------------
    |-----10------10----------10-----------------10----------10------------------
    |---8------------------------------------10------10-----------10-------------
    |-------------------------------------8---------------------------8----------
    
    
    Eb…
Наверх