Аккорды Blur - Jubilee

Добавлено: @romashka
Дата добавления: 26 Июня 2024г.
Рейтинг:
0.0
Просмотров: 15
Tuning: Standard tuning

Intro:

e|---------------------------------------------------------------------------|
B|--2-2-2-2---2-2-2---2-2-2---2-2-2--2-2-2-2---2-2-2---2-2-2-----------------|
G|--2-2-2-2---2-2-2---2-2-2---2-2-2--2-2-2-2---2-2-2---2-2-2-----------------|
D|--2-2-2-2---2-2-2---2-2-2---2-2-2--2-2-2-2---2-2-2---2-2-2-----------------|
A|--0-0-0-0---0-0-0---0-0-0---0-0-0--0-0-0-0---0-0-0---0-0-0-----------------|
E|---------------------------------------------------------------------------|

Verse riff x4:

e|---------------------------------------------------------------------------|
B|-----------------------------------------3------------1------3-------------|
G|--2-2-2-2-----------------1------------2---4b5r4-2--2---2----4-h5p4--------|
D|--2-2-2-2--4b5r4-2-0h2------4b5r4-2--0--------------3-----3--5-------------|
A|--0-0-0-0---------------2--------------------------------------------------|
E|---------------------------------------------------------------------------|

Chorus:

e|---------------------------------------------------------------------------|
B|---------------------------------------------------------------------------|
G|--6/7--7-\6/7--7-\6/7--7-\6/7--8--9--9--8/9--9--2--------------------------|
D|--6/7--7-\6/7--7-\6/7--7-\6/7--8--9--9--8/9--9--2--2-----------2--2--------|
A|--4/5--5-\4/5--5-\4/5--5-\4/5--6--7--7--6/7--7--0--0--0--------0--0--------|
E|---------------------------------------------------------2--0--------2--0--|

e|---------------------------------------------------8---------8-------------|
B|-----------------------------------------------------8---------8-----------|
G|--6/7--7-\6/7--7-\6/7--7-\6/7--8--9--9--8/9--9--9------9---------9---------|
D|--6/7--7-\6/7--7-\6/7--7-\6/7--8--9--9--8/9--9--9--------10--------10------|
A|--4/5--5-\4/5--5-\4/5--5-\4/5--6--7--7--6/7--7--7--------------------------|
E|---------------------------------------------------------------------------|

e|---------------------------------------------------------------------------|
B|-------11-------11--2-2-2-2---2-2-2---2-2-2--------------------------------|
G|--9h10-----9h10-----2-2-2-2---2-2-2---2-2-2--------------------------------|
D|--------------------2-2-2-2---2-2-2---2-2-2--------------------------------|
A|--------------------0-0-0-0---0-0-0---0-0-0--------------------------------|
E|---------------------------------------------------------------------------|

Verse riff x2

Chorus twice (slightly different from first time):

e|---------------------------------------------------------------------------|
B|---------------------------------------------------------------------------|
G|--6/7--7-\6/7--7-\6/7--7-\6/7--8--9--9--8/9--9--2--------------------------|
D|--6/7--7-\6/7--7-\6/7--7-\6/7--8--9--9--8/9--9--2--2-----------2--2--------|
A|--4/5--5-\4/5--5-\4/5--5-\4/5--6--7--7--6/7--7--0--0--0--------0--0--------|
E|---------------------------------------------------------2--0--------2--0--|

e|---------------------------------------------------------------------------|
B|---------------------------------------------------------------------------|
G|--6/7--7-\6/7--7-\6/7--7-\6/7--8--9--9--8/9--9--2--------------------------|
D|--6/7--7-\6/7--7-\6/7--7-\6/7--8--9--9--8/9--9--2--2-----------2--2--------|
A|--4/5--5-\4/5--5-\4/5--5-\4/5--6--7--7--6/7--7--0--0--0--------0--0--------|
E|---------------------------------------------------------2--0--------2--0--|

e|---------------------------------------------------------------------------|
B|---------------------------------------------------------------------------|
G|--6/7--7-\6/7--7-\6/7--7-\6/7--8--9--9--8/9--9--2--------------------------|
D|--6/7--7-\6/7--7-\6/7--7-\6/7--8--9--9--8/9--9--2--2-----------2--2--------|
A|--4/5--5-\4/5--5-\4/5--5-\4/5--6--7--7--6/7--7--0--0--0--------0--0--------|
E|---------------------------------------------------------2--0--------2--0--|

e|---------------------------------------------------8---------8-------------|
B|-----------------------------------------------------8---------8-----------|
G|--6/7--7-\6/7--7-\6/7--7-\6/7--8--9--9--8/9--9--9------9---------9---------|
D|--6/7--7-\6/7--7-\6/7--7-\6/7--8--9--9--8/9--9--9--------10--------10------|
A|--4/5--5-\4/5--5-\4/5--5-\4/5--6--7--7--6/7--7--7--------------------------|
E|---------------------------------------------------------------------------|

e|---------------------------------------------------------------------------|
B|-------11-------11---------------------------------------------------------|
G|--9h10-----9h10------------------------------------------------------------|
D|---------------------------------------------------------------------------|
A|---------------------------------------------------------------------------|
E|---------------------------------------------------------------------------|

Repeat intro with keyboard solo, then:

e|---------------------------------------------------------------------------|
B|---------------------------------------------------------------------------|
G|---------------------------------------------------------------------------|
D|--4-4-4-3---------5-5-5----------------------------------------------------|
A|--4-4-4-3---------5-5-5----------------------------------------------------|
E|--2-2-2-1---------3-3-3----------------------------------------------------|

Then into final chorus:
(Repeat this 3 times)
e|---------------------------------------------------------------------------|
B|---------------------------------------------------------------------------|
G|--6/7--7-\6/7--7-\6/7--7-\6/7--8--9--9--8/9--9--2--------------------------|
D|--6/7--7-\6/7--7-\6/7--7-\6/7--8--9--9--8/9--9--2--2-----------2--2--------|
A|--4/5--5-\4/5--5-\4/5--5-\4/5--6--7--7--6/7--7--0--0--0--------0--0--------|
E|---------------------------------------------------------2--0--------2--0--|

Then:
e|---------------------------------------------------8---------8-------------|
B|-----------------------------------------------------8---------8-----------|
G|--6/7--7-\6/7--7-\6/7--7-\6/7--8--9--9--8/9--9--9------9---------9---------|
D|--6/7--7-\6/7--7-\6/7--7-\6/7--8--9--9--8/9--9--9--------10--------10------|
A|--4/5--5-\4/5--5-\4/5--5-\4/5--6--7--7--6/7--7--7--------------------------|
E|---------------------------------------------------------------------------|

e|---------------------8--------8------------------------8--------8----------|
B|-------11-------11-----8--------8-----------11------11---8--------8--------|
G|--9h10-----9h10----------9--------9----9h10----9h10--------9--------9------|
D|---------------------------10-------10-----------------------10-------10---|
A|---------------------------------------------------------------------------|
E|---------------------------------------------------------------------------|

e|---------------------------------------------------------------------------|
B|-------11------11--2-------------------------------------------------------|
G|--9h10----9h10-----2-------------------------------------------------------|
D|-------------------2-------------------------------------------------------|
A|-------------------0-------------------------------------------------------|
E|---------------------------------------------------------------------------|
Музыка доставляет удовольствие, без которого человеческая природа не может обойтись (Конфуций)
Мы стремимся к созданию контента, соответствующего всем нормам законодательства и уважающего интеллектуальную собственность. Мы также придаем большое значение тому, чтобы не задеть никого и не оскорбить чьи-либо чувства. Если у вас есть вопросы или претензии по размещенному материалу, пожалуйста, сообщите нам об этом на указанный адрес электронной почты: [email protected].
Шрифт
-
0
+
Прокрутка
-
0
+
Стоп
Наверх