Аккорды Blur - Woodpigeon Song

Добавлено: @romashka
Дата добавления: 26 Июня 2024г.
Рейтинг:
0.0
Просмотров: 10
This song is in the key of C
Play along at:

[Chords]
Gmaj7    x109777
Cmaj7    x3545x
C6       8x798x
Bm       x24432
A        577655

[Intro]
   Gmaj7              Cmaj7
e|--7--7--7--7--7--7---3--|
B|--7--7--7--7--7--7---5--|
G|--7--7--7--7--7--7---4--|
D|--9--9--9--9--9--9---5--|2x
A|--10-10-10-10-10-10--3--|
E|------------------------|

[Verse]
Gmaj7            Cmaj7
Disingenious and tame
Gmaj7            Cmaj7        Bm  A
Everybody makes mistakes, sometimes

[Chorus]
C6     A
Woodpigeon
   C6              A
e|-----------------5--|
B|--8--8--8--8--8--5--|
G|--9--9--9--9--9--6--|
D|--7--7--7--7--7--7--|
A|-----------------7--|
E|--8--8--8--8--8--5--|
C6         A
in strip light
   C6              A
e|-----------------5--|
B|--8--8--8--8--8--5--|
G|--9--9--9--9--9--6--|
D|--7--7--7--7--7--7--|
A|-----------------7--|
E|--8--8--8--8--8--5--|
C6         A
Does it every night
   C6           Gmaj7 G
e|-----------------7--7--|
B|--8--8--8--8--8--7--8--|
G|--9--9--9--9--9--7--7--|
D|--7--7--7--7--7--8--8--|
A|-----------------9--9--|
E|--8--8--8--8--8--------|

[Verse]
Gmaj7               Cmaj7
It's a feeling that's around
Gmaj7               Cmaj7  Gmaj7
It's a feeling that's around

[Chorus]
C6     A
Woodpigeon
   C6              A
e|-----------------5--|
B|--8--8--8--8--8--5--|
G|--9--9--9--9--9--6--|
D|--7--7--7--7--7--7--|
A|-----------------7--|
E|--8--8--8--8--8--5--|
C6         A
in strip light
   C6              A
e|-----------------5--|
B|--8--8--8--8--8--5--|
G|--9--9--9--9--9--6--|
D|--7--7--7--7--7--7--|
A|-----------------7--|
E|--8--8--8--8--8--5--|
C6         A
Does it every night
   C6           Gmaj7 G
e|-----------------7--7--|
B|--8--8--8--8--8--7--8--|
G|--9--9--9--9--9--7--7--|
D|--7--7--7--7--7--8--8--|
A|-----------------9--9--|
E|--8--8--8--8--8--------|

[Outro]
   Gmaj7              Cmaj7
e|--7--7--7--7--7--7---3--|
B|--7--7--7--7--7--7---5--|
G|--7--7--7--7--7--7---4--|
D|--9--9--9--9--9--9---5--|3x
A|--10-10-10-10-10-10--3--|
E|------------------------|
G A G A G A
Но если и музыка нас оставит, что будет тогда с нашим миром? (Гоголь)
Мы стремимся к созданию контента, соответствующего всем нормам законодательства и уважающего интеллектуальную собственность. Мы также придаем большое значение тому, чтобы не задеть никого и не оскорбить чьи-либо чувства. Если у вас есть вопросы или претензии по размещенному материалу, пожалуйста, сообщите нам об этом на указанный адрес электронной почты: [email protected].
Шрифт
-
0
+
Прокрутка
-
0
+
Стоп
Наверх