Аккорды Борис Гребенщиков - Песня для нового быта

Добавлено: @romashka
Дата добавления: 14 Октября 2021г.
Рейтинг:
0.0
Просмотров: 21
Транспонировать - +
Вступление:

E-10-7-7--7--8-5-5-5-
H-7--7-10-7--5-5-8-5-
G-7--7-7--7--5-5-5-5- D Dsus4 D5
D-7--7-7--7--5-5-5-5-
A-0--0-0--0--0-0-0-0-
E-x--x-x--x--x-x-x-x-

  Am               D
E-7----5--7-5--10--7-------7--7-7
H-5----5--5-5--7---7-------10-7-7
G-5----5--5-5--7---7-------7--7-9
D-5----5--5-5--7---7-------7--7-7
A-0----0--0-0--0---0-------0--0-0
E-x----x--x-x--x---x-------x--x-x
Все, кто были, по-моему, сплыли,

  G(III)     F       E
 А  те, кто остался, спят.
 Am
Один лишь я
   D             G
Сижу на этой стене,
      C           D
Как свойственно мне.

  Am                  D
E-7----5---7----5---10-7----7--7-
H-5----5---5----5---7--7----10-7-
G-5----5---5----5---7--7----7--7-
D-5----5---5----5---7--7----7--7-
A-0----0---0----0---0--0----0--0-
E-x----x---x----x---x--x----x--x-
   Мне сказали, что к этим винам

    G(III)   F          E            
  Подмешан таинственный яд;
    Am              D                  G G7
А мне смешно - ну что они смыслят в вине?

C              D     G
Эй, вы, как живётся там?
C            G G/f# E
 У вас есть гиппопотам,
  Am
А мы в чулане
    Hm
С дырой в кармане,
     C      C/h
Но здесь забавно,
     Am      D
Здесь так забавно...

Проигрыш:
  Am        D
E-7-5-7-5-10-7-7--7-7-
H-5-5-5-5-7--7-10-7-7-
G-5-5-5-5-7--7-7--7-9-
D-5-5-5-5-7--7-7--7-7-
A-0-0-0-0-0--0-0--0-0-
E-x-x-x-x-x--x-x--x-x-
G(III) F E Am D G G7

C               D      G
 И вот путь, ведущий вниз,
C           D      G
 А вот - вода из крана;
 C           D         G
Вот кто-то влез на карниз -
    Am                 Cm/d#   D
Не чтобы прыгнуть, а просто спьяну;

Am              D
E-7-5-7-5-10-7-7---7-
H-5-5-5-5-7--7-10--7-
G-5-5-5-5-7--7-7---7-
D-5-5-5-5-7--7-7---7-
A-0-0-0-0-0--0-0---0-
E-x-x-x-x-x--x-x---x-
Всё к тому, что этот день

  G(III)      F      E          
 Был не худшим из наших дней;
    Am               D       G   C D
Посмотрим, что принесёт эта ночь;

  Am           D
E-7-5-7-5-10-7-7----7-
H-5-5-5-5-7--7-10---7-
G-5-5-5-5-7--7-7----7-
D-5-5-5-5-7--7-7----7-
A-0-0-0-0-0--0-0----0-
E-x-x-x-x-x--x-x----x-
Мне не нужно много света,

  G(III)      F        E            
 Мне хочется, чтобы светлей;
   Am   
И радостно, что
 D                  G  G7
Ты можешь в этом помочь;

C                  D     G
 Но эй, вы, как живётся там?
C            G G/f# E
 У вас есть гиппопотам,
   Am
А мы в чулане
     Hm
С дырой в кармане,
     C     C/h
Но здесь забавно,
  Am         D
Здесь так забавно...

Заключение:
  Am      D
E-7-5-7-5-10-7-7--7-7-
H-5-5-5-5-7--7-10-7-7-
G-5-5-5-5-7--7-7--7-9-
D-5-5-5-5-7--7-7--7-7-
A-0-0-0-0-0--0-0--0-0-
E-x-x-x-x-x--x-x--x-x-
G(III) C G D G 

Каподастр на 2-м ладу.
Наверх