Аккорды Борис Гребенщиков - Город золотой

Добавлено: @romashka
Дата добавления: 16 Октября 2022г.
Рейтинг:
0.0
Просмотров: 40
Транспонировать - +
E|----------------|--0------------0|--1-0----------|1-0--------|
B|--1-0-------01--|----3-1-0-1-3--|------3-1-0-1-3|----3-1-3-0|
G|------2-1-2----2|----------------|2--------------|-----------|
D|2---------------|2---------------|--0------------|-----------|
A|--0-------0-----|--0-------0-----|---------------|-----------|
E|----------------|----------------|---------------|--0-------0|

E|----------------|--0------------0|--1-0----------|1-0--------|
B|--1-0-------01--|----3-1-0-1-3--|------3-1-0-1-3|----3-0-1--|
G|------2-1-2----2|----------------|2--------------|----------2|
D|2---------------|2---------------|--0------------|-----------|
A|--0-------0-----|--0-------0-----|---------------|----------0|
E|----------------|----------------|---------------|--0--------|

E|-5-5-----3-3-1-0-1-5|-3-----1-1-0---0-3|---0---5-10-8-7-5-5-4|
B|-------2------------|-----0-------4----|-3---6---------------|
G|-----2--------------|---0--------------|---------------------|
D|-----------0-------0|------------------|-0-------------------|
A|---4----------------|---------3--------|---------------------|
E|--------------------|-3----------------|------------------0--|

E|---0---5-10-8-7-5-5-4-|---5---|
B|-3---6----------------|-------|
G|----------------------|-------|
D|-0--------------------|-------|
A|----------------------|---0---|
E|------------------0---|-------| 
Наверх