Аккорды Буерак - Культ тела

Добавлено: @romashka
Дата добавления: 25 Августа 2021г.
Рейтинг:
0.0
Просмотров: 75
Транспонировать - +
Куплет и проигрыш(1)
 
e|-----5-----------|----------------|-----5-----------|------5---5-5-5-|
B|---6-----6-6-6-5-|--5-5-----------|---6-----6-6-6-5-|--5-5-----------|
G|-7---------------|------6---6-6-6-|-7---------------|----------------|
D|-----------------|----------------|-----------------|----------------|
A|-----------------|----------------|-----------------|----------------|
E|-----------------|----------------|-----------------|----------------|
 
 
Припев и проигрыш(2)
 
e|--5-(x10)---1-(x3)---5-(x10)---10-(x3)-------------------------------|
B|--6---------2--------6---------11------------------------------------|
G|--7---------3--------7---------12------------------------------------|
D|---------------------------------------------------------------------|
A|---------------------------------------------------------------------|
E|---------------------------------------------------------------------|


Интеллектом обделён, взгляд немного притуплён
Когда тебя увидел - поднялась температура
Я помню, как с любовью я смотрел в твоё лицо
Под штанами задохнулась моя совесть и культура    2 раза
Подъехала девятка и пошла перезарядка
Все, кто тебя касался, ползают в кишках в загадках
Надеюсь, что от крови тебе не будет гадко
Но не переживай, я работаю в перчатках

Культ тела, культ тела
Меня интересует лишь твоё тело
Культ тела                   2 раза
Я сделал для тебя
Ошейник из металла, чтобы ты не убежала

проигрыш(2) 4 раза
проигрыш(1) 6 раз

Культ тела, культ тела
Меня интересует лишь твоё тело
Культ тела
Я сделал для тебя
Ошейник из металла, чтобы ты не убежала
Наверх