Аккорды Cheap Trick - Cold Turkey

Добавлено: @romashka
Дата добавления: 05 Января 2024г.
Рейтинг:
0.0
Просмотров: 86
Tuning:DADGBE

Verse (Guitar 1):

     D      A/D        G
e|---------------------------------------------------------------------------|
B|-3-3-3---2-2-2---3-3-3-3---------------------------------------------------|
G|-2-2-2---2-2-2---0-0-0-0---------------------------------------------------|
D|-0-0-0---2-2-2---0-0-0-0---------------------------------------------------|
A|-0-0-0---0-0-0---0-0-0-0---------------------------------------------------|
D|-0-0-0---0-0-0---5-5-5-5---------------------------------------------------|

Verse (Guitar 2):

     D5          A5     G5
e|---------------------------------------------------------------------------|
B|---------------------------------------------------------------------------|
G|---------------------------------------------------------------------------|
D|-14-14-14---9-9-9---7-7-7--------------------------------------------------|
A|-12-12-12---7-7-7---5-5-5--------------------------------------------------|
D|-12-12-12---7-7-7---5-5-5--------------------------------------------------|

[Riff #1]
e|---------------------------------------------------------------------------|
B|-12b-12b-12b--12---------12------------------------------------------------|
G|-12b-12b-12b--12--10-----12------------------------------------------------|
D|---------------------12----------------------------------------------------|
A|---------------------------------------------------------------------------|
D|---------------------------------------------------------------------------|

Chorus:

       C5          G5           ...on the run
e|---------------------------------------------------------------------------|
B|---------------------------------------------------------------------------|
G|---5-5-5-5-5---------------------------------------------------------------|
D|---5-5-5-5-5---5-5-5-5-5/--------------------------------------------------|
A|---3-3-3-3-3---5-5-5-5-5/--------------------------------------------------|
D|---------------5-5-5-5-5/--------------------------------------------------|

D            A/D   G  D        A/D  G
Temperature's rising, fever is high
D            A/D   G  D        A/D  G
Can't see no future, can't see no sky


D            A/D   G  D        A/D  G
My feet are so heavy, so is my head
D            A/D   G  D        A/D  G
I wish I was a baby, I wish you was dead

       C5        G5
Cold turkey has got me on the run

       C5        G5
Cold turkey has got me on the run

D           A/D  G  D         A/D   G
My body is aching, goose-pimple bone
D           A/D  G  D         A/D  G
Can't see nobody, leave me alone

D            A/D   G  D        A/D  G
My eyes are wide open, can't get to sleep
D            A/D   G  D        A/D    G
One thing I'm sure of, I've entered the deep freeze

       C5        G5
Cold turkey has got me on the run

       C5        G5
Cold turkey has got me on the run

[Riff #1] x9
e|---------------------------------------------------------------------------|
B|-12b-12b-12b--12---------12------------------------------------------------|
G|-12b-12b-12b--12--10-----12------------------------------------------------|
D|---------------------12----------------------------------------------------|
A|---------------------------------------------------------------------------|
D|---------------------------------------------------------------------------|


D            A/D   G  D        A/D  G
Thirty-six hours, rolling in pain
D            A/D   G  D        A/D  G
Praying to someone, free me again

D            A/D   G     D           A/D    G
Oh, I'll be a good boy, so, please make me well

D            A/D   G     D           A/D    G
I promise you anything to get me out of this hell

       C5        G5
Cold turkey has got me on the run

       C5        G5
Cold turkey has got me on the run

No! Oh! No!    

[Riff #1]  x9
e|---------------------------------------------------------------------------|
B|-12b-12b-12b--12---------12------------------------------------------------|
G|-12b-12b-12b--12--10-----12------------------------------------------------|
D|---------------------12----------------------------------------------------|
A|---------------------------------------------------------------------------|
D|---------------------------------------------------------------------------|

The ending is pretty much free form chaos using variations [Riff #1], chords, and feedback.
Но если и музыка нас оставит, что будет тогда с нашим миром? (Гоголь)
Мы стремимся к созданию контента, соответствующего всем нормам законодательства и уважающего интеллектуальную собственность. Мы также придаем большое значение тому, чтобы не задеть никого и не оскорбить чьи-либо чувства. Если у вас есть вопросы или претензии по размещенному материалу, пожалуйста, сообщите нам об этом на указанный адрес электронной почты: [email protected].
Шрифт
-
0
+
Прокрутка
-
0
+
Стоп
Наверх