Аккорды Cheap Trick - I'm The Man

Добавлено: @romashka
Дата добавления: 05 Января 2024г.
Рейтинг:
0.0
Просмотров: 74
Tuning:EADGBE

[Intro]

   E    B5   D5   A5        E
e|-0------------------------0-----------------------------------------------|
B|-0---------3--------------0-----------------------------------------------|
G|-1---4-4---2---2-2--------1-----------------------------------------------|
D|-2---4-4---0---2-2--------2-----------------------------------------------|
A|-2---2-2-------0-0--------2-----------------------------------------------|
E|-0-------------------3b---0-----------------------------------------------|

[Verse] 

   E    D D E  (x10)  
e|---------------------------------------------------------------------------|
B|---------------------------------------------------------------------------|
G|-9\---7-7-9\---------------------------------------------------------------|
D|-9\---7-7-9\---------------------------------------------------------------|
A|---------------------------------------------------------------------------|
E|---------------------------------------------------------------------------|

Going down the road with a friend or two
Ain't nothing in the world, in the world I can't do
You thought you'd seen it all, you ain't seen nothing new

N.C.
Ain't nothing in the world, in the world I can't do

B5         A5       B5          A5
I can really rock, I'm a rock 'n' roller
B5                 A5        E
And I can't control myself

[Verse]

E   D D E (x10)  

Big city, big lights can see it up ahead
No one can stop me, I'm driving in your head
Make a name for myself and I'll be number one

    N.C.
And turn around and turn around and know that I'm the one


B5         A5       B5          A5
I can really rock, I'm a rock 'n' roller
B5                 A5        E
And I can't control myself

B5         A5       B5          A5
I can really rock, I'm a rock 'n' roller
B5                   A5        E
And I can't control myself

[Riff]
e|---------------------------------------------------------------------------|
B|---------------------------------------------------------------------------|
G|-2-0-2-0-------------------------------------------------------------------|
D|----------2b---------------------------------------------------------------|
A|---------------------------------------------------------------------------|
E|---------------------------------------------------------------------------|

B5             D5             A5    [Riff]
I'm the man in a rock 'n' roll band
B5                   D5              A5
I'm so crazy for you baby, yes, I'm the man
B5              D5             A5   [Riff]
I'm the man in a rock 'n' roll band
B5                  D5               A
I'm so crazy for you baby, yes, I'm the man, yes, I am

B5             D5             A5    [Riff]
I'm the man in a rock 'n' roll band
B5                   D5              A5
I'm so crazy for you baby, yes, I'm the man
B5              D5             A5   [Riff]
I'm the man in a rock 'n' roll band
B5                  D5               A
I'm so crazy for you baby, yes, I'm the man, yes, I am

E  B5 D5 A5 E
Музыка глушит печаль (Шекспир)
Мы стремимся к созданию контента, соответствующего всем нормам законодательства и уважающего интеллектуальную собственность. Мы также придаем большое значение тому, чтобы не задеть никого и не оскорбить чьи-либо чувства. Если у вас есть вопросы или претензии по размещенному материалу, пожалуйста, сообщите нам об этом на указанный адрес электронной почты: [email protected].
Шрифт
-
0
+
Прокрутка
-
0
+
Стоп
Наверх