Аккорды Chic - Le Freak

Добавлено: @romashka
Дата добавления: 17 Сентября 2018г.
Рейтинг:
0.0
Просмотров: 25
Транспонировать - +
Intro                                                 
                                            4x                         
G||--------------------|--------------------||------------------------|
D||*-------------------|-------------------*||-------------7----------|
A||*-------------------|-------------------*||------------------------|
E||-----------------3--|--5-----------------||---------3-5---5--3--4--|


  Verse                                                        4x
|----------------------------|----------------------------||
|*---------------------------|---------------------------*||
|*--------------3------------|--5---5--5-3---3---3--3----*||
|---5-----3-4-5---3-5--3--5--|-------------5----------3---||


                            Bridge                                  
------------------------||-----------------------------------|
-------------7----------||*----------------------------------|
------------------------||*--0--15--15--12--15--12--15-12--0-|
---------3-5---5--3--4--||-----------------------------------|


                                                                          
------------------------------------|------------------------------------|
------------------------------------|------------------------------------|
---12-15--15--12--15--12--15-12-----|---12-15--15--12--15--12--15-12-----|
---------------------------------10-|---------------------------------10-|


                                                                         
------------------------------------||----------------------------------|
-----------------------------------*||*---------------------------------|
---12-15--15--12--15--12--15-12--0-*||*---12-15--15--12--15--12--15---0-|
------------------------------------||----------------------------------|


                                     
-----------------------------------||
----------------------------------*||
---12-15--15--12--15--12--15------*||
-------------------------------10--||
comments powered by Disqus
Наверх