Аккорды Чичерина - Рвать

Добавлено: @romashka
Дата добавления: 26 Сентября 2020г.
Рейтинг:
0.0
Просмотров: 57
Транспонировать - +
Вступление:
  Am               E            Dm               E             
E|-------------------------------------1--0-------------------|
H|-------1--0--------------------------------3----------------|
G|-------------2---------2--1-------2----------2-------2--1---|
D|----2----------2------------2--0--------------------------2-|
A|-0------------------2-----------------------------2---------|
E|-----------------0-----------------------------0------------|
  Am               E               Dm               E          
E|-----------------------0----------------1--0----------------|
H|-------1--0------------0----------------------3-------------|
G|-------------2---------2--1---0~1----2----------2-------1---|
D|----2----------2-------2----2-----0-------------------------|
A|-0------------------2--2-----------------------------2------|
E|-----------------0-----0--------------------------0---------|


      Am           E                            
Где-то далеко ведут бой в чужих городах
   Dm                   E  
Наши мечты, погибает любовь и наш страх
       Am                   E                     
Наши голоса навсегда остались во тьме,
           Dm         E 
Где-то далеко, умирать на войне

Припев:

    Am                    E    
И опять всё готово для того, чтобы рвать,
           Dm               E
И легко наполняются яростью наши сердца
        Am          E    
И плевать, что никто не хотел умирать,
               Dm       E
Нам не жалко себя, а, тем более, слов и свинца

Проигрыш - 2 раза:

  Am               E            Dm               E             
E|-------------------------------------1--0-------------------|
H|-------1--0--------------------------------3----------------|
G|-------------2---------2--1-------2----------2-------2--1---|
D|----2----------2------------2--0--------------------------2-|
A|-0------------------2-----------------------------2---------|
E|-----------------0-----------------------------0------------|


Нам бы осадить, нам уже все без тормозов,
Мы с тобой умрём, как ковбои из "Бешеных псов"
Обними меня перед тем, как меня разорвать,
Нам бы осадить, но некому это сказать...

Припев.

Проигрыш.

Припев.

Окончание - 2 раза:

  Am               E            Dm               E             
E|-------------------------------------1--0-------------------|
H|-------1--0--------------------------------3----------------|
G|-------------2---------2--1-------2----------2-------2--1---|
D|----2----------2------------2--0--------------------------2-|
A|-0------------------2-----------------------------2---------|
E|-----------------0-----------------------------0------------|

Бой на гитаре (примерный вариант): 8-ка подходит на каждый аккорд.
Наверх