Аккорды Чёрный Обелиск - Когда-нибудь

Добавлено: @romashka
Дата добавления: 04 Октября 2019г.
Рейтинг:
0.0
Просмотров: 13
Транспонировать - +
Вступление: (см. аппликатуры в описании)
   A5
e|---------------------------------|
B|---------------------------------|
G|---------------------------------|
D|---------------------------------|
A|---7-7-----8-8-----7-7-----6-6---|
E|-5--5----5--5----5--5----5--5----|

   E5
e|---------------------------------|
B|---------------------------------|
G|---------------------------------|
D|---9-9-----10-10-----9-9-----8-8-|
A|-7--7----7---7-----7--7----7--7--|
E|---------------------------------|

   A5                    G#5
Какой уж век нас терпят небеса?
   G5                  F#5
Своей судьбы никто не выбирает сам:
    F5                 E5
Вчерашний раб сегодня господин,
   D5                   A5
Твои друзья ушли и ты один.

  A5                    G#5
Здесь каждый молится своим Богам:
  G5                    F#5
Один судьбы звезде, другой деньгам,
 F5                        E5
Тот, третий, просто хочет жить красиво,
    D5                   A5
Четвертый тихо шепчет: «Боже Милый!»

 A5                 G#5
Ты запоешь, когда умолкну я.
    G5                   F#5
Ты тоже будешь думать, что Земля
    F5                   E5
Когда-нибудь, да будет спасена
   D5                 A5
И ты когда-нибудь дойдешь до дна.

 A5                       G#5
Ты будешь думать, что ты жизнь исправишь,
    G5                       F#5
Когда впервые в храме ты свечу поставишь,
    F5                     E5
Когда ты сможешь плакать, как нельзя,
    D5                           A5
Когда ты крикнешь: «Господи, спаси меня!»

Акцент на пятую струну:

57xxxx A5
47xxxx G#5
35xxxx G5
25xxxx F#5
13xxxx F5
02xxxx E5
x57xxx D5

Цифры - номер лада, на котором зажимается струна.
Нумерация струн идет слева (от шестой струны).
comments powered by Disqus
Наверх