Аккорды Darlingside - The God of Loss

Добавлено: @romashka
Дата добавления: 06 Марта 2024г.
Рейтинг:
0.0
Просмотров: 36
Транспонировать - +
[Intro]

D/A

[Fiddle part]

|G    | Bm   | D/A  | A   |
|G    | Bm   | D/A  | A   |

[Verse]

    D
My father was a carpenter
    G               Bm
My mother she died young
         G            D
I'm the eldest of my brothers
            A            Bm
You're the trouble in my blood
 G            D
Trouble in my blood

   D 
I swore that I'd stay humble
         G           Bm
Like my father was before
    G                D
He built the home I live in
    A                Bm
Of sand and mud and smoke
 G                D
Sand and mud and smoke

[Chorus]

              D             G      D
Yes, we will leave here without a trace
     G      D             A
Take a new name and an old shape
            G              D
I'll be no outlaw, no renegade
    G      D               A
Just your faithful god of loss

[Fiddle part]

|G    | Bm   | D   | A   |
|G    | Bm   | D   | A   |

    D
So meet me by the river
      G                    Bm
On a boat-shaped piece of earth
    G               D
We press our bones together
          A              Bm
And the spider does its work

D
  With flakes of garlic
    G             Bm
And petals from a rose
         G               D
If it's small enough to carry
        A              Bm
You and I can call it home
        G              D
You and I can call it home

[Chorus]

              D             G      D
Yes, we will leave here without a trace
     G      D             A
Take a new name and an old shape
            G              D
I'll be no outlaw, no renegade
     G     D               A
Just your faithful god of loss

[Fiddle part]

|G    | Bm   | D   | A   |
|G    | Bm   | D   | A   |

|D    |

OK, if you want to play it exactly as on the recording, 
here are the tabs for the fingerpicking and exact chords:

[Intro]

D/A                   

e|--------2------------|
B|----------------3----|
G|----2-------2--------|
D|---------------------|
A|--0---0---0---0------|
E|---------------------|

Then each chord is played like this, 2x each.

   GMaj7                  Bm                  D/A                  A

e|---------2------------|---------2----------|--------2------------|--------5------------|
B|-----------------3----|-----------------3--|----------------3----|----------------2----|
G|-----4-------4--------|-----4-------4------|----2-------2--------|----2-------2--------|
D|----------------------|--------------------|---------------------|---------------------|
A|----------------------|---2---2---2---2----|--0---0---0---0------|--0---0---0---0------|
E|---3---3---3---3------|--------------------|---------------------|---------------------|

    D/A
My father was a carpenter
    GMaj7           Bm
My mother she died young
        GMaj7        D/A
I'm the eldest of my brothers
            A            Bm
You're the trouble in my blood
 GMaj7         D/A
Trouble in my blood
Наверх