Аккорды Dayglow - Hot Rod

Добавлено: @romashka
Дата добавления: 27 Марта 2024г.
Рейтинг:
0.0
Просмотров: 23
Транспонировать - +
[2:24]

e|-17-15-------------------------------17-15---------------------------------|
B|-------19-17/19-17-15----15----------------19-17/19-17-15----15-------15---|
G|----------------------16----16\14-------------------------16----16-14------|
D|---------------------------------------------------------------------------|
A|---------------------------------------------------------------------------|
E|---------------------------------------------------------------------------|

e|-17-15---------------------------------------------------------------------|
B|-------19-17/19-17-15----15----------------15-17-19----15/17-19-17-15------|
G|----------------------16----16\14----14-16----------14---------------------| 
D|---------------------------------------------------------------------------|
A|---------------------------------------------------------------------------|
E|---------------------------------------------------------------------------|

e|-17-15-------------------------------17-15---------------------------------|
B|-------19-17/19-17-15----15----------------19-17/19-17-15----15-------15---|
G|----------------------16----16\14-------------------------16----16-14------|
D|---------------------------------------------------------------------------|
A|---------------------------------------------------------------------------|
E|---------------------------------------------------------------------------|

e|-17-15---------------------------------------------------------------------|
B|-------19-17/19-17-15----15----------------15-17-19----15/17-19-17-15------|
G|----------------------16----16\14----14-16----------14---------------------|
D|---------------------------------------------------------------------------|
A|---------------------------------------------------------------------------|
E|---------------------------------------------------------------------------|


************************************

| /   Slide up
| \   Slide down

************************************  
Наверх